  0
SECTION
  2
HEADER
  9
$ACADVER
  1
AC1027
  9
$ACADMAINTVER
 70
   105
  9
$DWGCODEPAGE
  3
ANSI_1252
  9
$REQUIREDVERSIONS
160
                 0
  9
$LASTSAVEDBY
  1
merichar
  9
$INSBASE
 10
0.0
 20
0.0
 30
0.0
  9
$EXTMIN
 10
143.995396
 20
28.81699900000001
 30
0.0
  9
$EXTMAX
 10
2504.682637
 20
1425.605264
 30
0.0
  9
$LIMMIN
 10
0.0
 20
0.0
  9
$LIMMAX
 10
12.0
 20
9.0
  9
$ORTHOMODE
 70
     0
  9
$REGENMODE
 70
     1
  9
$FILLMODE
 70
     1
  9
$QTEXTMODE
 70
     0
  9
$MIRRTEXT
 70
     1
  9
$LTSCALE
 40
1.0
  9
$ATTMODE
 70
     1
  9
$TEXTSIZE
 40
2.5
  9
$TRACEWID
 40
0.05
  9
$TEXTSTYLE
  7
STANDARD
  9
$CLAYER
  8
0
  9
$CELTYPE
  6
BYBLOCK
  9
$CECOLOR
 62
   256
  9
$CELTSCALE
 40
1.0
  9
$DISPSILH
 70
     0
  9
$DIMSCALE
 40
1.0
  9
$DIMASZ
 40
0.18
  9
$DIMEXO
 40
0.0625
  9
$DIMDLI
 40
0.38
  9
$DIMRND
 40
0.0
  9
$DIMDLE
 40
0.0
  9
$DIMEXE
 40
0.18
  9
$DIMTP
 40
0.0
  9
$DIMTM
 40
0.0
  9
$DIMTXT
 40
0.18
  9
$DIMCEN
 40
0.09
  9
$DIMTSZ
 40
0.0
  9
$DIMTOL
 70
     0
  9
$DIMLIM
 70
     0
  9
$DIMTIH
 70
     1
  9
$DIMTOH
 70
     1
  9
$DIMSE1
 70
     0
  9
$DIMSE2
 70
     0
  9
$DIMTAD
 70
     0
  9
$DIMZIN
 70
     0
  9
$DIMBLK
  1

  9
$DIMASO
 70
     1
  9
$DIMSHO
 70
     1
  9
$DIMPOST
  1

  9
$DIMAPOST
  1

  9
$DIMALT
 70
     0
  9
$DIMALTD
 70
     2
  9
$DIMALTF
 40
25.4
  9
$DIMLFAC
 40
1.0
  9
$DIMTOFL
 70
     0
  9
$DIMTVP
 40
0.0
  9
$DIMTIX
 70
     0
  9
$DIMSOXD
 70
     0
  9
$DIMSAH
 70
     0
  9
$DIMBLK1
  1

  9
$DIMBLK2
  1

  9
$DIMSTYLE
  2
ISO-25
  9
$DIMCLRD
 70
     0
  9
$DIMCLRE
 70
     0
  9
$DIMCLRT
 70
     0
  9
$DIMTFAC
 40
1.0
  9
$DIMGAP
 40
0.09
  9
$DIMJUST
 70
     0
  9
$DIMSD1
 70
     0
  9
$DIMSD2
 70
     0
  9
$DIMTOLJ
 70
     1
  9
$DIMTZIN
 70
     0
  9
$DIMALTZ
 70
     0
  9
$DIMALTTZ
 70
     0
  9
$DIMUPT
 70
     0
  9
$DIMDEC
 70
     4
  9
$DIMTDEC
 70
     4
  9
$DIMALTU
 70
     2
  9
$DIMALTTD
 70
     2
  9
$DIMTXSTY
  7
STANDARD
  9
$DIMAUNIT
 70
     0
  9
$DIMADEC
 70
     0
  9
$DIMALTRND
 40
0.0
  9
$DIMAZIN
 70
     0
  9
$DIMDSEP
 70
    46
  9
$DIMATFIT
 70
     3
  9
$DIMFRAC
 70
     0
  9
$DIMLDRBLK
  1

  9
$DIMLUNIT
 70
     2
  9
$DIMLWD
 70
    -2
  9
$DIMLWE
 70
    -2
  9
$DIMTMOVE
 70
     2
  9
$DIMFXL
 40
1.0
  9
$DIMFXLON
 70
     0
  9
$DIMJOGANG
 40
0.7853981633974483
  9
$DIMTFILL
 70
     0
  9
$DIMTFILLCLR
 70
     0
  9
$DIMARCSYM
 70
     0
  9
$DIMLTYPE
  6

  9
$DIMLTEX1
  6

  9
$DIMLTEX2
  6

  9
$DIMTXTDIRECTION
 70
     0
  9
$LUNITS
 70
     2
  9
$LUPREC
 70
     4
  9
$SKETCHINC
 40
0.1
  9
$FILLETRAD
 40
0.5
  9
$AUNITS
 70
     0
  9
$AUPREC
 70
     0
  9
$MENU
  1
.
  9
$ELEVATION
 40
0.0
  9
$PELEVATION
 40
0.0
  9
$THICKNESS
 40
0.0
  9
$LIMCHECK
 70
     0
  9
$CHAMFERA
 40
0.0
  9
$CHAMFERB
 40
0.0
  9
$CHAMFERC
 40
0.0
  9
$CHAMFERD
 40
0.0
  9
$SKPOLY
 70
     0
  9
$TDCREATE
 40
0.0
  9
$TDUCREATE
 40
0.0
  9
$TDUPDATE
 40
2457872.516143472
  9
$TDUUPDATE
 40
2457872.724476805
  9
$TDINDWG
 40
0.0000000231
  9
$TDUSRTIMER
 40
2457872.721861632
  9
$USRTIMER
 70
     1
  9
$ANGBASE
 50
0.0
  9
$ANGDIR
 70
     0
  9
$PDMODE
 70
     0
  9
$PDSIZE
 40
0.0
  9
$PLINEWID
 40
0.0
  9
$SPLFRAME
 70
     0
  9
$SPLINETYPE
 70
     6
  9
$SPLINESEGS
 70
     8
  9
$HANDSEED
  5
10056
  9
$SURFTAB1
 70
     6
  9
$SURFTAB2
 70
     6
  9
$SURFTYPE
 70
     6
  9
$SURFU
 70
     6
  9
$SURFV
 70
     6
  9
$UCSBASE
  2

  9
$UCSNAME
  2

  9
$UCSORG
 10
0.0
 20
0.0
 30
0.0
  9
$UCSXDIR
 10
1.0
 20
0.0
 30
0.0
  9
$UCSYDIR
 10
0.0
 20
1.0
 30
0.0
  9
$UCSORTHOREF
  2

  9
$UCSORTHOVIEW
 70
     0
  9
$UCSORGTOP
 10
0.0
 20
0.0
 30
0.0
  9
$UCSORGBOTTOM
 10
0.0
 20
0.0
 30
0.0
  9
$UCSORGLEFT
 10
0.0
 20
0.0
 30
0.0
  9
$UCSORGRIGHT
 10
0.0
 20
0.0
 30
0.0
  9
$UCSORGFRONT
 10
0.0
 20
0.0
 30
0.0
  9
$UCSORGBACK
 10
0.0
 20
0.0
 30
0.0
  9
$PUCSBASE
  2

  9
$PUCSNAME
  2

  9
$PUCSORG
 10
0.0
 20
0.0
 30
0.0
  9
$PUCSXDIR
 10
1.0
 20
0.0
 30
0.0
  9
$PUCSYDIR
 10
0.0
 20
1.0
 30
0.0
  9
$PUCSORTHOREF
  2

  9
$PUCSORTHOVIEW
 70
     0
  9
$PUCSORGTOP
 10
0.0
 20
0.0
 30
0.0
  9
$PUCSORGBOTTOM
 10
0.0
 20
0.0
 30
0.0
  9
$PUCSORGLEFT
 10
0.0
 20
0.0
 30
0.0
  9
$PUCSORGRIGHT
 10
0.0
 20
0.0
 30
0.0
  9
$PUCSORGFRONT
 10
0.0
 20
0.0
 30
0.0
  9
$PUCSORGBACK
 10
0.0
 20
0.0
 30
0.0
  9
$USERI1
 70
     0
  9
$USERI2
 70
     0
  9
$USERI3
 70
     0
  9
$USERI4
 70
     0
  9
$USERI5
 70
     0
  9
$USERR1
 40
0.0
  9
$USERR2
 40
0.0
  9
$USERR3
 40
0.0
  9
$USERR4
 40
0.0
  9
$USERR5
 40
0.0
  9
$WORLDVIEW
 70
     1
  9
$SHADEDGE
 70
     3
  9
$SHADEDIF
 70
    70
  9
$TILEMODE
 70
     1
  9
$MAXACTVP
 70
    64
  9
$PINSBASE
 10
0.0
 20
0.0
 30
0.0
  9
$PLIMCHECK
 70
     0
  9
$PEXTMIN
 10
1.000000000000000E+20
 20
1.000000000000000E+20
 30
1.000000000000000E+20
  9
$PEXTMAX
 10
-1.000000000000000E+20
 20
-1.000000000000000E+20
 30
-1.000000000000000E+20
  9
$PLIMMIN
 10
0.0
 20
0.0
  9
$PLIMMAX
 10
0.0
 20
0.0
  9
$UNITMODE
 70
     0
  9
$VISRETAIN
 70
     1
  9
$PLINEGEN
 70
     0
  9
$PSLTSCALE
 70
     1
  9
$TREEDEPTH
 70
  3020
  9
$CMLSTYLE
  2
STANDARD
  9
$CMLJUST
 70
     0
  9
$CMLSCALE
 40
1.0
  9
$PROXYGRAPHICS
 70
     1
  9
$MEASUREMENT
 70
     1
  9
$CELWEIGHT
370
    -1
  9
$ENDCAPS
280
     0
  9
$JOINSTYLE
280
     0
  9
$LWDISPLAY
290
     0
  9
$INSUNITS
 70
     0
  9
$HYPERLINKBASE
  1

  9
$STYLESHEET
  1

  9
$XEDIT
290
     1
  9
$CEPSNTYPE
380
     0
  9
$PSTYLEMODE
290
     1
  9
$FINGERPRINTGUID
  2
{06d8660a-4baa-4c5f-b43a-c5f97df6ded3}
  9
$VERSIONGUID
  2
{FAEB1C32-E019-11D5-929B-00C0DF256EC4}
  9
$EXTNAMES
290
     1
  9
$PSVPSCALE
 40
0.0
  9
$OLESTARTUP
290
     0
  9
$SORTENTS
280
   127
  9
$INDEXCTL
280
     0
  9
$HIDETEXT
280
     1
  9
$XCLIPFRAME
280
     2
  9
$HALOGAP
280
     0
  9
$OBSCOLOR
 70
   257
  9
$OBSLTYPE
280
     0
  9
$INTERSECTIONDISPLAY
280
     0
  9
$INTERSECTIONCOLOR
 70
   257
  9
$DIMASSOC
280
     2
  9
$PROJECTNAME
  1

  9
$CAMERADISPLAY
290
     0
  9
$LENSLENGTH
 40
50.0
  9
$CAMERAHEIGHT
 40
0.0
  9
$STEPSPERSEC
 40
2.0
  9
$STEPSIZE
 40
6.0
  9
$3DDWFPREC
 40
2.0
  9
$PSOLWIDTH
 40
0.25
  9
$PSOLHEIGHT
 40
4.0
  9
$LOFTANG1
 40
1.570796326794897
  9
$LOFTANG2
 40
1.570796326794897
  9
$LOFTMAG1
 40
0.0
  9
$LOFTMAG2
 40
0.0
  9
$LOFTPARAM
 70
     7
  9
$LOFTNORMALS
280
     1
  9
$LATITUDE
 40
37.795
  9
$LONGITUDE
 40
-122.394
  9
$NORTHDIRECTION
 40
0.0
  9
$TIMEZONE
 70
 -8000
  9
$LIGHTGLYPHDISPLAY
280
     1
  9
$TILEMODELIGHTSYNCH
280
     1
  9
$SOLIDHIST
280
     0
  9
$SHOWHIST
280
     1
  9
$DWFFRAME
280
     2
  9
$DGNFRAME
280
     2
  9
$REALWORLDSCALE
290
     1
  9
$INTERFERECOLOR
 62
   256
  9
$CSHADOW
280
     0
  9
$SHADOWPLANELOCATION
 40
0.0
  0
ENDSEC
  0
SECTION
  2
CLASSES
  0
CLASS
  1
ACDBDICTIONARYWDFLT
  2
AcDbDictionaryWithDefault
  3
ObjectDBX Classes
 90
        0
 91
        5
280
     0
281
     0
  0
CLASS
  1
SCALE
  2
AcDbScale
  3
ObjectDBX Classes
 90
     1153
 91
        5
280
     0
281
     0
  0
CLASS
  1
VISUALSTYLE
  2
AcDbVisualStyle
  3
ObjectDBX Classes
 90
     4095
 91
        5
280
     0
281
     0
  0
CLASS
  1
MATERIAL
  2
AcDbMaterial
  3
ObjectDBX Classes
 90
     1153
 91
        5
280
     0
281
     0
  0
CLASS
  1
TABLESTYLE
  2
AcDbTableStyle
  3
ObjectDBX Classes
 90
     4095
 91
        5
280
     0
281
     0
  0
CLASS
  1
MLEADERSTYLE
  2
AcDbMLeaderStyle
  3
ACDB_MLEADERSTYLE_CLASS
 90
     4095
 91
        5
280
     0
281
     0
  0
CLASS
  1
SUN
  2
AcDbSun
  3
SCENEOE
 90
     1153
 91
        5
280
     0
281
     0
  0
CLASS
  1
RASTERVARIABLES
  2
AcDbRasterVariables
  3
ISM
 90
        0
 91
        5
280
     0
281
     0
  0
CLASS
  1
DICTIONARYVAR
  2
AcDbDictionaryVar
  3
ObjectDBX Classes
 90
        0
 91
        5
280
     0
281
     0
  0
CLASS
  1
CELLSTYLEMAP
  2
AcDbCellStyleMap
  3
ObjectDBX Classes
 90
     1152
 91
        5
280
     0
281
     0
  0
ENDSEC
  0
SECTION
  2
TABLES
  0
TABLE
  2
VPORT
  5
8
330
0
100
AcDbSymbolTable
 70
     1
  0
VPORT
  5
2E
330
8
100
AcDbSymbolTableRecord
100
AcDbViewportTableRecord
  2
*ACTIVE
 70
     0
 10
0.0
 20
0.0
 11
1.0
 21
1.0
 12
210.0
 22
148.5
 13
0.0
 23
0.0
 14
10.0
 24
10.0
 15
10.0
 25
10.0
 16
0.0
 26
0.0
 36
1.0
 17
0.0
 27
0.0
 37
0.0
 40
341.0
 41
1.24
 42
50.0
 43
0.0
 44
0.0
 50
0.0
 51
0.0
 71
     0
 72
   100
 73
     1
 74
     3
 75
     0
 76
     0
 77
     0
 78
     0
281
     0
 65
     1
110
0.0
120
0.0
130
0.0
111
1.0
121
0.0
131
0.0
112
0.0
122
1.0
132
0.0
 79
     0
146
0.0
348
1002D
 60
     3
 61
     5
292
     1
282
     1
141
0.0
142
0.0
 63
   256
361
1004A
  0
ENDTAB
  0
TABLE
  2
LTYPE
  5
5
330
0
100
AcDbSymbolTable
 70
     1
  0
LTYPE
  5
14
330
5
100
AcDbSymbolTableRecord
100
AcDbLinetypeTableRecord
  2
BYBLOCK
 70
     0
  3

 72
    65
 73
     0
 40
0.0
  0
LTYPE
  5
15
330
5
100
AcDbSymbolTableRecord
100
AcDbLinetypeTableRecord
  2
BYLAYER
 70
     0
  3

 72
    65
 73
     0
 40
0.0
  0
LTYPE
  5
16
330
5
100
AcDbSymbolTableRecord
100
AcDbLinetypeTableRecord
  2
CONTINUOUS
 70
     0
  3
Solid line
 72
    65
 73
     0
 40
0.0
  0
ENDTAB
  0
TABLE
  2
LAYER
  5
2
330
0
100
AcDbSymbolTable
 70
     2
  0
LAYER
  5
50
330
2
100
AcDbSymbolTableRecord
100
AcDbLayerTableRecord
  2
0
 70
     0
 62
     7
  6
CONTINUOUS
370
    -3
390
10002
347
10044
348
0
  0
LAYER
  5
51
330
2
100
AcDbSymbolTableRecord
100
AcDbLayerTableRecord
  2
Andrew
 70
     0
 62
     7
  6
CONTINUOUS
370
    -3
390
10002
347
10044
348
0
  0
ENDTAB
  0
TABLE
  2
STYLE
  5
3
330
0
100
AcDbSymbolTable
 70
     1
  0
STYLE
  5
11
330
3
100
AcDbSymbolTableRecord
100
AcDbTextStyleTableRecord
  2
STANDARD
 70
     0
 40
0.0
 41
1.0
 50
0.0
 71
     0
 42
2.5
  3
txt
  4

  0
ENDTAB
  0
TABLE
  2
VIEW
  5
6
330
0
100
AcDbSymbolTable
 70
     0
  0
ENDTAB
  0
TABLE
  2
UCS
  5
7
330
0
100
AcDbSymbolTable
 70
     0
  0
ENDTAB
  0
TABLE
  2
APPID
  5
9
330
0
100
AcDbSymbolTable
 70
     1
  0
APPID
  5
12
330
9
100
AcDbSymbolTableRecord
100
AcDbRegAppTableRecord
  2
ACAD
 70
     0
  0
ENDTAB
  0
TABLE
  2
DIMSTYLE
  5
A
330
0
100
AcDbSymbolTable
 70
     1
100
AcDbDimStyleTable
  0
DIMSTYLE
105
27
330
A
100
AcDbSymbolTableRecord
100
AcDbDimStyleTableRecord
  2
ISO-25
 70
     0
 41
2.5
 42
0.625
 43
3.75
 44
1.25
 73
     0
 74
     0
 77
     1
 78
     8
140
2.5
141
2.5
143
0.03937007874016
147
0.625
171
     3
172
     1
178
     0
271
     2
272
     2
274
     3
283
     0
284
     8
340
11
  0
ENDTAB
  0
TABLE
  2
BLOCK_RECORD
  5
1
330
0
100
AcDbSymbolTable
 70
     0
  0
BLOCK_RECORD
  5
1F
330
1
100
AcDbSymbolTableRecord
100
AcDbBlockTableRecord
  2
*MODEL_SPACE
340
10026
 70
     0
280
     1
281
     0
  0
BLOCK_RECORD
  5
1B
330
1
100
AcDbSymbolTableRecord
100
AcDbBlockTableRecord
  2
*PAPER_SPACE
340
10027
 70
     0
280
     1
281
     0
  0
ENDTAB
  0
ENDSEC
  0
SECTION
  2
BLOCKS
  0
BLOCK
  5
20
330
1F
100
AcDbEntity
  8
0
100
AcDbBlockBegin
  2
*MODEL_SPACE
 70
     0
 10
0.0
 20
0.0
 30
0.0
  3
*MODEL_SPACE
  1

  0
ENDBLK
  5
21
330
1F
100
AcDbEntity
  8
0
100
AcDbBlockEnd
  0
BLOCK
  5
1C
330
1B
100
AcDbEntity
 67
     1
  8
0
100
AcDbBlockBegin
  2
*PAPER_SPACE
 70
     0
 10
0.0
 20
0.0
 30
0.0
  3
*PAPER_SPACE
  1

  0
ENDBLK
  5
1D
330
1B
100
AcDbEntity
 67
     1
  8
0
100
AcDbBlockEnd
  0
ENDSEC
  0
SECTION
  2
ENTITIES
  0
SPLINE
  5
100
330
1F
100
AcDbEntity
  8
Andrew
 62
     5
100
AcDbSpline
210
0.0
220
0.0
230
1.0
 70
     8
 71
     3
 72
     8
 73
     4
 74
     0
 42
0.000000001
 43
0.0000001
 40
0.0
 40
0.0
 40
0.0
 40
0.0
 40
1.0
 40
1.0
 40
1.0
 40
1.0
 10
474.732888
 20
1166.400571
 30
0.0
 10
510.689887
 20
1133.626572
 30
0.0
 10
540.352886
 20
1114.797572
 30
0.0
 10
563.732886
 20
1109.933572
 30
0.0
  0
LWPOLYLINE
  5
101
330
1F
100
AcDbEntity
  8
Andrew
 62
     5
100
AcDbPolyline
 90
        4
 70
     0
 43
0.0
 10
563.732886
 20
1109.933572
 10
556.436886
 20
1132.447572
 10
510.093887
 20
1286.327568
 10
474.732888
 20
1166.400571
  0
LWPOLYLINE
  5
102
330
1F
100
AcDbEntity
  8
Andrew
 62
     5
100
AcDbPolyline
 90
        2
 70
     1
 43
0.0
 10
563.732886
 20
1109.933572
 10
563.732886
 20
1109.933572
  0
SPLINE
  5
103
330
1F
100
AcDbEntity
  8
Andrew
 62
     5
100
AcDbSpline
210
0.0
220
0.0
230
1.0
 70
     8
 71
     3
 72
     8
 73
     4
 74
     0
 42
0.000000001
 43
0.0000001
 40
0.0
 40
0.0
 40
0.0
 40
0.0
 40
1.0
 40
1.0
 40
1.0
 40
1.0
 10
349.732891
 20
1141.705571
 30
0.0
 10
370.210891
 20
1169.761571
 30
0.0
 10
394.26989
 20
1185.79357
 30
0.0
 10
421.886889
 20
1189.80157
 30
0.0
  0
LWPOLYLINE
  5
104
330
1F
100
AcDbEntity
  8
Andrew
 62
     5
100
AcDbPolyline
 90
        2
 70
     0
 43
0.0
 10
379.792891
 20
1108.973572
 10
349.732891
 20
1141.705571
  0
SPLINE
  5
105
330
1F
100
AcDbEntity
  8
Andrew
 62
     5
100
AcDbSpline
210
0.0
220
0.0
230
1.0
 70
     8
 71
     3
 72
     8
 73
     4
 74
     0
 42
0.000000001
 43
0.0000001
 40
0.0
 40
0.0
 40
0.0
 40
0.0
 40
1.0
 40
1.0
 40
1.0
 40
1.0
 10
469.304888
 20
1338.765567
 30
0.0
 10
472.863888
 20
1349.891566
 30
0.0
 10
474.648888
 20
1358.356566
 30
0.0
 10
474.648888
 20
1364.149566
 30
0.0
  0
SPLINE
  5
106
330
1F
100
AcDbEntity
  8
Andrew
 62
     5
100
AcDbSpline
210
0.0
220
0.0
230
1.0
 70
     8
 71
     3
 72
     8
 73
     4
 74
     0
 42
0.000000001
 43
0.0000001
 40
0.0
 40
0.0
 40
0.0
 40
0.0
 40
1.0
 40
1.0
 40
1.0
 40
1.0
 10
474.648888
 20
1364.149566
 30
0.0
 10
474.648888
 20
1381.068565
 30
0.0
 10
470.859888
 20
1391.537565
 30
0.0
 10
463.292888
 20
1395.545565
 30
0.0
  0
LWPOLYLINE
  5
107
330
1F
100
AcDbEntity
  8
Andrew
 62
     5
100
AcDbPolyline
 90
        2
 70
     0
 43
0.0
 10
421.886889
 20
1189.80157
 10
469.304888
 20
1338.765567
  0
SPLINE
  5
108
330
1F
100
AcDbEntity
  8
Andrew
 62
     5
100
AcDbSpline
210
0.0
220
0.0
230
1.0
 70
     8
 71
     3
 72
     8
 73
     4
 74
     0
 42
0.000000001
 43
0.0000001
 40
0.0
 40
0.0
 40
0.0
 40
0.0
 40
1.0
 40
1.0
 40
1.0
 40
1.0
 10
562.824886
 20
1395.545565
 30
0.0
 10
554.359886
 20
1391.537565
 30
0.0
 10
550.132886
 20
1381.736565
 30
0.0
 10
550.132886
 20
1366.153566
 30
0.0
  0
SPLINE
  5
109
330
1F
100
AcDbEntity
  8
Andrew
 62
     5
100
AcDbSpline
210
0.0
220
0.0
230
1.0
 70
     8
 71
     3
 72
     8
 73
     4
 74
     0
 42
0.000000001
 43
0.0000001
 40
0.0
 40
0.0
 40
0.0
 40
0.0
 40
1.0
 40
1.0
 40
1.0
 40
1.0
 10
550.132886
 20
1366.153566
 30
0.0
 10
550.132886
 20
1360.809566
 30
0.0
 10
551.468886
 20
1353.899566
 30
0.0
 10
554.140886
 20
1345.445566
 30
0.0
  0
LWPOLYLINE
  5
10A
330
1F
100
AcDbEntity
  8
Andrew
 62
     5
100
AcDbPolyline
 90
        2
 70
     0
 43
0.0
 10
463.292888
 20
1395.545565
 10
562.824886
 20
1395.545565
  0
SPLINE
  5
10B
330
1F
100
AcDbEntity
  8
Andrew
 62
     5
100
AcDbSpline
210
0.0
220
0.0
230
1.0
 70
     8
 71
     3
 72
     8
 73
     4
 74
     0
 42
0.000000001
 43
0.0000001
 40
0.0
 40
0.0
 40
0.0
 40
0.0
 40
1.0
 40
1.0
 40
1.0
 40
1.0
 10
627.901884
 20
1117.740572
 30
0.0
 10
635.417884
 20
1121.289572
 30
0.0
 10
647.566884
 20
1127.719572
 30
0.0
 10
664.360883
 20
1137.029572
 30
0.0
  0
SPLINE
  5
10C
330
1F
100
AcDbEntity
  8
Andrew
 62
     5
100
AcDbSpline
210
0.0
220
0.0
230
1.0
 70
     8
 71
     3
 72
     8
 73
     4
 74
     0
 42
0.000000001
 43
0.0000001
 40
0.0
 40
0.0
 40
0.0
 40
0.0
 40
1.0
 40
1.0
 40
1.0
 40
1.0
 10
664.360883
 20
1137.029572
 30
0.0
 10
654.507884
 20
1118.742572
 30
0.0
 10
644.664884
 20
1104.474572
 30
0.0
 10
634.811884
 20
1094.225573
 30
0.0
  0
LWPOLYLINE
  5
10D
330
1F
100
AcDbEntity
  8
Andrew
 62
     5
100
AcDbPolyline
 90
        2
 70
     0
 43
0.0
 10
554.140886
 20
1345.445566
 10
627.901884
 20
1117.740572
  0
SPLINE
  5
10E
330
1F
100
AcDbEntity
  8
Andrew
 62
     5
100
AcDbSpline
210
0.0
220
0.0
230
1.0
 70
     8
 71
     3
 72
     8
 73
     4
 74
     0
 42
0.000000001
 43
0.0000001
 40
0.0
 40
0.0
 40
0.0
 40
0.0
 40
1.0
 40
1.0
 40
1.0
 40
1.0
 10
661.437883
 20
1012.029575
 30
0.0
 10
666.040883
 20
998.273575
 30
0.0
 10
668.577883
 20
991.175575
 30
0.0
 10
669.036883
 20
990.737575
 30
0.0
  0
SPLINE
  5
10F
330
1F
100
AcDbEntity
  8
Andrew
 62
     5
100
AcDbSpline
210
0.0
220
0.0
230
1.0
 70
     8
 71
     3
 72
     8
 73
     4
 74
     0
 42
0.000000001
 43
0.0000001
 40
0.0
 40
0.0
 40
0.0
 40
0.0
 40
1.0
 40
1.0
 40
1.0
 40
1.0
 10
669.036883
 20
990.737575
 30
0.0
 10
671.708883
 20
983.900575
 30
0.0
 10
675.935883
 20
977.752576
 30
0.0
 10
681.728883
 20
972.294576
 30
0.0
  0
LWPOLYLINE
  5
110
330
1F
100
AcDbEntity
  8
Andrew
 62
     5
100
AcDbPolyline
 90
        2
 70
     0
 43
0.0
 10
634.811884
 20
1094.225573
 10
661.437883
 20
1012.029575
  0
SPLINE
  5
111
330
1F
100
AcDbEntity
  8
Andrew
 62
     5
100
AcDbSpline
210
0.0
220
0.0
230
1.0
 70
     8
 71
     3
 72
     8
 73
     4
 74
     0
 42
0.000000001
 43
0.0000001
 40
0.0
 40
0.0
 40
0.0
 40
0.0
 40
1.0
 40
1.0
 40
1.0
 40
1.0
 10
583.532885
 20
972.210576
 30
0.0
 10
592.884885
 20
974.465576
 30
0.0
 10
597.560885
 20
981.249575
 30
0.0
 10
597.560885
 20
992.563575
 30
0.0
  0
SPLINE
  5
112
330
1F
100
AcDbEntity
  8
Andrew
 62
     5
100
AcDbSpline
210
0.0
220
0.0
230
1.0
 70
     8
 71
     3
 72
     8
 73
     4
 74
     0
 42
0.000000001
 43
0.0000001
 40
0.0
 40
0.0
 40
0.0
 40
0.0
 40
1.0
 40
1.0
 40
1.0
 40
1.0
 10
597.560885
 20
992.563575
 30
0.0
 10
597.560885
 20
995.277575
 30
0.0
 10
596.130885
 20
1001.832575
 30
0.0
 10
593.270885
 20
1012.238575
 30
0.0
  0
LWPOLYLINE
  5
113
330
1F
100
AcDbEntity
  8
Andrew
 62
     5
100
AcDbPolyline
 90
        4
 70
     0
 43
0.0
 10
681.728883
 20
972.294576
 10
701.100882
 20
960.677576
 10
566.832886
 20
960.677576
 10
583.532885
 20
972.210576
  0
SPLINE
  5
114
330
1F
100
AcDbEntity
  8
Andrew
 62
     5
100
AcDbSpline
210
0.0
220
0.0
230
1.0
 70
     8
 71
     3
 72
     8
 73
     4
 74
     0
 42
0.000000001
 43
0.0000001
 40
0.0
 40
0.0
 40
0.0
 40
0.0
 40
1.0
 40
1.0
 40
1.0
 40
1.0
 10
576.236886
 20
1069.122573
 30
0.0
 10
548.493886
 20
1074.884573
 30
0.0
 10
512.024887
 20
1099.057573
 30
0.0
 10
466.830888
 20
1141.642571
 30
0.0
  0
LWPOLYLINE
  5
115
330
1F
100
AcDbEntity
  8
Andrew
 62
     5
100
AcDbPolyline
 90
        2
 70
     0
 43
0.0
 10
593.270885
 20
1012.238575
 10
576.236886
 20
1069.122573
  0
SPLINE
  5
116
330
1F
100
AcDbEntity
  8
Andrew
 62
     5
100
AcDbSpline
210
0.0
220
0.0
230
1.0
 70
     8
 71
     3
 72
     8
 73
     4
 74
     0
 42
0.000000001
 43
0.0000001
 40
0.0
 40
0.0
 40
0.0
 40
0.0
 40
1.0
 40
1.0
 40
1.0
 40
1.0
 10
412.36789
 20
972.753576
 30
0.0
 10
409.79989
 20
964.278576
 30
0.0
 10
408.51689
 20
957.587576
 30
0.0
 10
408.51689
 20
952.692576
 30
0.0
  0
SPLINE
  5
117
330
1F
100
AcDbEntity
  8
Andrew
 62
     5
100
AcDbSpline
210
0.0
220
0.0
230
1.0
 70
     8
 71
     3
 72
     8
 73
     4
 74
     0
 42
0.000000001
 43
0.0000001
 40
0.0
 40
0.0
 40
0.0
 40
0.0
 40
1.0
 40
1.0
 40
1.0
 40
1.0
 10
408.51689
 20
952.692576
 30
0.0
 10
408.51689
 20
945.115576
 30
0.0
 10
414.96689
 20
938.643577
 30
0.0
 10
427.888889
 20
933.289577
 30
0.0
  0
LWPOLYLINE
  5
118
330
1F
100
AcDbEntity
  8
Andrew
 62
     5
100
AcDbPolyline
 90
        3
 70
     0
 43
0.0
 10
466.830888
 20
1141.642571
 10
463.887888
 20
1132.374572
 10
412.36789
 20
972.753576
  0
SPLINE
  5
119
330
1F
100
AcDbEntity
  8
Andrew
 62
     5
100
AcDbSpline
210
0.0
220
0.0
230
1.0
 70
     8
 71
     3
 72
     8
 73
     4
 74
     0
 42
0.000000001
 43
0.0000001
 40
0.0
 40
0.0
 40
0.0
 40
0.0
 40
1.0
 40
1.0
 40
1.0
 40
1.0
 10
323.012892
 20
933.289577
 30
0.0
 10
333.700892
 20
936.858577
 30
0.0
 10
340.380891
 20
940.867576
 30
0.0
 10
343.052891
 20
945.313576
 30
0.0
  0
SPLINE
  5
11A
330
1F
100
AcDbEntity
  8
Andrew
 62
     5
100
AcDbSpline
210
0.0
220
0.0
230
1.0
 70
     8
 71
     3
 72
     8
 73
     4
 74
     0
 42
0.000000001
 43
0.0000001
 40
0.0
 40
0.0
 40
0.0
 40
0.0
 40
1.0
 40
1.0
 40
1.0
 40
1.0
 10
343.052891
 20
945.313576
 30
0.0
 10
344.388891
 20
947.546576
 30
0.0
 10
347.060891
 20
954.894576
 30
0.0
 10
351.068891
 20
967.357576
 30
0.0
  0
LWPOLYLINE
  5
11B
330
1F
100
AcDbEntity
  8
Andrew
 62
     5
100
AcDbPolyline
 90
        4
 70
     0
 43
0.0
 10
427.888889
 20
933.289577
 10
400.50089
 20
931.953577
 10
356.412891
 20
931.953577
 10
323.012892
 20
933.289577
  0
SPLINE
  5
11C
330
1F
100
AcDbEntity
  8
Andrew
 62
     5
100
AcDbSpline
210
0.0
220
0.0
230
1.0
 70
     8
 71
     3
 72
     8
 73
     4
 74
     0
 42
0.000000001
 43
0.0000001
 40
0.0
 40
0.0
 40
0.0
 40
0.0
 40
1.0
 40
1.0
 40
1.0
 40
1.0
 10
414.05889
 20
1163.018571
 30
0.0
 10
394.83289
 20
1161.682571
 30
0.0
 10
378.059891
 20
1153.447571
 30
0.0
 10
363.760891
 20
1138.333572
 30
0.0
  0
LWPOLYLINE
  5
11D
330
1F
100
AcDbEntity
  8
Andrew
 62
     5
100
AcDbPolyline
 90
        2
 70
     0
 43
0.0
 10
351.068891
 20
967.357576
 10
414.05889
 20
1163.018571
  0
LWPOLYLINE
  5
11E
330
1F
100
AcDbEntity
  8
Andrew
 62
     5
100
AcDbPolyline
 90
        2
 70
     0
 43
0.0
 10
363.760891
 20
1138.333572
 10
379.792891
 20
1108.973572
  0
SPLINE
  5
11F
330
1F
100
AcDbEntity
  8
Andrew
 62
     5
100
AcDbSpline
210
0.0
220
0.0
230
1.0
 70
     8
 71
     3
 72
     8
 73
     4
 74
     0
 42
0.000000001
 43
0.0000001
 40
0.0
 40
0.0
 40
0.0
 40
0.0
 40
1.0
 40
1.0
 40
1.0
 40
1.0
 10
1194.07077
 20
1378.177566
 30
0.0
 10
1187.82977
 20
1386.631565
 30
0.0
 10
1180.71077
 20
1395.096565
 30
0.0
 10
1172.694771
 20
1403.561565
 30
0.0
  0
LWPOLYLINE
  5
120
330
1F
100
AcDbEntity
  8
Andrew
 62
     5
100
AcDbPolyline
 90
       11
 70
     0
 43
0.0
 10
1288.926768
 20
1067.557573
 10
1263.542768
 20
1106.301572
 10
1260.870768
 20
1111.645572
 10
1264.878768
 20
937.297577
 10
1243.502769
 20
970.697576
 10
1228.806769
 20
810.37758
 10
1180.71077
 20
1086.261573
 10
1204.75877
 20
1070.229573
 10
1179.374771
 20
1235.893569
 10
1212.77477
 20
1221.197569
 10
1194.07077
 20
1378.177566
  0
SPLINE
  5
121
330
1F
100
AcDbEntity
  8
Andrew
 62
     5
100
AcDbSpline
210
0.0
220
0.0
230
1.0
 70
     8
 71
     3
 72
     8
 73
     4
 74
     0
 42
0.000000001
 43
0.0000001
 40
0.0
 40
0.0
 40
0.0
 40
0.0
 40
1.0
 40
1.0
 40
1.0
 40
1.0
 10
1292.934768
 20
1402.225565
 30
0.0
 10
1285.805768
 20
1400.440565
 30
0.0
 10
1282.246768
 20
1391.975565
 30
0.0
 10
1282.246768
 20
1376.841566
 30
0.0
  0
SPLINE
  5
122
330
1F
100
AcDbEntity
  8
Andrew
 62
     5
100
AcDbSpline
210
0.0
220
0.0
230
1.0
 70
     8
 71
     3
 72
     8
 73
     4
 74
     0
 42
0.000000001
 43
0.0000001
 40
0.0
 40
0.0
 40
0.0
 40
0.0
 40
1.0
 40
1.0
 40
1.0
 40
1.0
 10
1282.246768
 20
1376.841566
 30
0.0
 10
1282.246768
 20
1375.505566
 30
0.0
 10
1283.582768
 20
1372.603566
 30
0.0
 10
1286.254768
 20
1368.157566
 30
0.0
  0
SPLINE
  5
123
330
1F
100
AcDbEntity
  8
Andrew
 62
     5
100
AcDbSpline
210
0.0
220
0.0
230
1.0
 70
     8
 71
     3
 72
     8
 73
     4
 74
     0
 42
0.000000001
 43
0.0000001
 40
0.0
 40
0.0
 40
0.0
 40
0.0
 40
1.0
 40
1.0
 40
1.0
 40
1.0
 10
1286.254768
 20
1368.157566
 30
0.0
 10
1288.926768
 20
1363.700566
 30
0.0
 10
1290.481768
 20
1361.028566
 30
0.0
 10
1290.930768
 20
1360.141566
 30
0.0
  0
LWPOLYLINE
  5
124
330
1F
100
AcDbEntity
  8
Andrew
 62
     5
100
AcDbPolyline
 90
        3
 70
     0
 43
0.0
 10
1172.694771
 20
1403.561565
 10
1191.39877
 20
1402.893565
 10
1292.934768
 20
1402.225565
  0
SPLINE
  5
125
330
1F
100
AcDbEntity
  8
Andrew
 62
     5
100
AcDbSpline
210
0.0
220
0.0
230
1.0
 70
     8
 71
     3
 72
     8
 73
     4
 74
     0
 42
0.000000001
 43
0.0000001
 40
0.0
 40
0.0
 40
0.0
 40
0.0
 40
1.0
 40
1.0
 40
1.0
 40
1.0
 10
1423.195764
 20
1342.105566
 30
0.0
 10
1423.195764
 20
1359.911566
 30
0.0
 10
1416.514765
 20
1370.599566
 30
0.0
 10
1403.155765
 20
1374.169566
 30
0.0
  0
LWPOLYLINE
  5
126
330
1F
100
AcDbEntity
  8
Andrew
 62
     5
100
AcDbPolyline
 90
        3
 70
     0
 43
0.0
 10
1290.930768
 20
1360.141566
 10
1423.195764
 20
1030.817574
 10
1423.195764
 20
1342.105566
  0
SPLINE
  5
127
330
1F
100
AcDbEntity
  8
Andrew
 62
     5
100
AcDbSpline
210
0.0
220
0.0
230
1.0
 70
     8
 71
     3
 72
     8
 73
     4
 74
     0
 42
0.000000001
 43
0.0000001
 40
0.0
 40
0.0
 40
0.0
 40
0.0
 40
1.0
 40
1.0
 40
1.0
 40
1.0
 10
1513.374762
 20
1375.505566
 30
0.0
 10
1499.116763
 20
1371.497566
 30
0.0
 10
1491.998763
 20
1360.360566
 30
0.0
 10
1491.998763
 20
1342.105566
 30
0.0
  0
LWPOLYLINE
  5
128
330
1F
100
AcDbEntity
  8
Andrew
 62
     5
100
AcDbPolyline
 90
        4
 70
     0
 43
0.0
 10
1403.155765
 20
1374.169566
 10
1402.487765
 20
1376.173566
 10
1513.374762
 20
1376.173566
 10
1513.374762
 20
1375.505566
  0
SPLINE
  5
129
330
1F
100
AcDbEntity
  8
Andrew
 62
     5
100
AcDbSpline
210
0.0
220
0.0
230
1.0
 70
     8
 71
     3
 72
     8
 73
     4
 74
     0
 42
0.000000001
 43
0.0000001
 40
0.0
 40
0.0
 40
0.0
 40
0.0
 40
1.0
 40
1.0
 40
1.0
 40
1.0
 10
1491.998763
 20
971.365576
 30
0.0
 10
1491.998763
 20
952.223576
 30
0.0
 10
1498.678763
 20
940.867576
 30
0.0
 10
1512.038762
 20
937.297577
 30
0.0
  0
LWPOLYLINE
  5
12A
330
1F
100
AcDbEntity
  8
Andrew
 62
     5
100
AcDbPolyline
 90
        2
 70
     0
 43
0.0
 10
1491.998763
 20
1342.105566
 10
1491.998763
 20
971.365576
  0
SPLINE
  5
12B
330
1F
100
AcDbEntity
  8
Andrew
 62
     5
100
AcDbSpline
210
0.0
220
0.0
230
1.0
 70
     8
 71
     3
 72
     8
 73
     4
 74
     0
 42
0.000000001
 43
0.0000001
 40
0.0
 40
0.0
 40
0.0
 40
0.0
 40
1.0
 40
1.0
 40
1.0
 40
1.0
 10
1378.439766
 20
937.297577
 30
0.0
 10
1382.447765
 20
938.194577
 30
0.0
 10
1387.122765
 20
941.305576
 30
0.0
 10
1392.466765
 20
946.649576
 30
0.0
  0
SPLINE
  5
12C
330
1F
100
AcDbEntity
  8
Andrew
 62
     5
100
AcDbSpline
210
0.0
220
0.0
230
1.0
 70
     8
 71
     3
 72
     8
 73
     4
 74
     0
 42
0.000000001
 43
0.0000001
 40
0.0
 40
0.0
 40
0.0
 40
0.0
 40
1.0
 40
1.0
 40
1.0
 40
1.0
 10
1392.466765
 20
946.649576
 30
0.0
 10
1397.810765
 20
951.993576
 30
0.0
 10
1400.483765
 20
956.669576
 30
0.0
 10
1400.483765
 20
960.677576
 30
0.0
  0
SPLINE
  5
12D
330
1F
100
AcDbEntity
  8
Andrew
 62
     5
100
AcDbSpline
210
0.0
220
0.0
230
1.0
 70
     8
 71
     3
 72
     8
 73
     4
 74
     0
 42
0.000000001
 43
0.0000001
 40
0.0
 40
0.0
 40
0.0
 40
0.0
 40
1.0
 40
1.0
 40
1.0
 40
1.0
 10
1400.483765
 20
960.677576
 30
0.0
 10
1400.483765
 20
958.443576
 30
0.0
 10
1397.142765
 20
966.459576
 30
0.0
 10
1390.462765
 20
984.725575
 30
0.0
  0
LWPOLYLINE
  5
12E
330
1F
100
AcDbEntity
  8
Andrew
 62
     5
100
AcDbPolyline
 90
        2
 70
     0
 43
0.0
 10
1512.038762
 20
937.297577
 10
1378.439766
 20
937.297577
  0
SPLINE
  5
12F
330
1F
100
AcDbEntity
  8
Andrew
 62
     5
100
AcDbSpline
210
0.0
220
0.0
230
1.0
 70
     8
 71
     3
 72
     8
 73
     4
 74
     0
 42
0.000000001
 43
0.0000001
 40
0.0
 40
0.0
 40
0.0
 40
0.0
 40
1.0
 40
1.0
 40
1.0
 40
1.0
 10
2097.867148
 20
1021.465274
 30
0.0
 10
2098.305148
 20
1020.129274
 30
0.0
 10
2098.754148
 20
1018.564275
 30
0.0
 10
2099.192148
 20
1016.789275
 30
0.0
  0
SPLINE
  5
130
330
1F
100
AcDbEntity
  8
Andrew
 62
     5
100
AcDbSpline
210
0.0
220
0.0
230
1.0
 70
     8
 71
     3
 72
     8
 73
     4
 74
     0
 42
0.000000001
 43
0.0000001
 40
0.0
 40
0.0
 40
0.0
 40
0.0
 40
1.0
 40
1.0
 40
1.0
 40
1.0
 10
2099.192148
 20
1016.789275
 30
0.0
 10
2109.358147
 20
1009.660275
 30
0.0
 10
2124.399147
 20
1002.980275
 30
0.0
 10
2144.304146
 20
996.749275
 30
0.0
  0
SPLINE
  5
131
330
1F
100
AcDbEntity
  8
Andrew
 62
     5
100
AcDbSpline
210
0.0
220
0.0
230
1.0
 70
     8
 71
     3
 72
     8
 73
     4
 74
     0
 42
0.000000001
 43
0.0000001
 40
0.0
 40
0.0
 40
0.0
 40
0.0
 40
1.0
 40
1.0
 40
1.0
 40
1.0
 10
2144.304146
 20
996.749275
 30
0.0
 10
2153.154146
 20
1001.644275
 30
0.0
 10
2162.663146
 20
1008.544275
 30
0.0
 10
2172.829146
 20
1017.457275
 30
0.0
  0
SPLINE
  5
132
330
1F
100
AcDbEntity
  8
Andrew
 62
     5
100
AcDbSpline
210
0.0
220
0.0
230
1.0
 70
     8
 71
     3
 72
     8
 73
     4
 74
     0
 42
0.000000001
 43
0.0000001
 40
0.0
 40
0.0
 40
0.0
 40
0.0
 40
1.0
 40
1.0
 40
1.0
 40
1.0
 10
2172.829146
 20
1017.457275
 30
0.0
 10
2184.769145
 20
1028.145274
 30
0.0
 10
2192.076145
 20
1037.267274
 30
0.0
 10
2194.726145
 20
1044.845274
 30
0.0
  0
LWPOLYLINE
  5
133
330
1F
100
AcDbEntity
  8
Andrew
 62
     5
100
AcDbPolyline
 90
        3
 70
     0
 43
0.0
 10
1390.462765
 20
984.725575
 10
1287.590768
 20
1262.613568
 10
1288.926768
 20
1067.557573
  0
SPLINE
  5
134
330
1F
100
AcDbEntity
  8
Andrew
 62
     5
100
AcDbSpline
210
0.0
220
0.0
230
1.0
 70
     8
 71
     3
 72
     8
 73
     4
 74
     0
 42
0.000000001
 43
0.0000001
 40
0.0
 40
0.0
 40
0.0
 40
0.0
 40
1.0
 40
1.0
 40
1.0
 40
1.0
 10
2194.726145
 20
1320.729267
 30
0.0
 10
2190.207145
 20
1335.863267
 30
0.0
 10
2177.797146
 20
1349.004266
 30
0.0
 10
2157.486146
 20
1360.141266
 30
0.0
  0
SPLINE
  5
135
330
1F
100
AcDbEntity
  8
Andrew
 62
     5
100
AcDbSpline
210
0.0
220
0.0
230
1.0
 70
     8
 71
     3
 72
     8
 73
     4
 74
     0
 42
0.000000001
 43
0.0000001
 40
0.0
 40
0.0
 40
0.0
 40
0.0
 40
1.0
 40
1.0
 40
1.0
 40
1.0
 10
2157.486146
 20
1360.141266
 30
0.0
 10
2146.203146
 20
1365.485266
 30
0.0
 10
2129.284147
 20
1373.720266
 30
0.0
 10
2106.718147
 20
1384.857265
 30
0.0
  0
SPLINE
  5
136
330
1F
100
AcDbEntity
  8
Andrew
 62
     5
100
AcDbSpline
210
0.0
220
0.0
230
1.0
 70
     8
 71
     3
 72
     8
 73
     4
 74
     0
 42
0.000000001
 43
0.0000001
 40
0.0
 40
0.0
 40
0.0
 40
0.0
 40
1.0
 40
1.0
 40
1.0
 40
1.0
 10
2106.718147
 20
1384.857265
 30
0.0
 10
2104.004147
 20
1377.728266
 30
0.0
 10
2101.969147
 20
1366.591266
 30
0.0
 10
2100.612147
 20
1351.457266
 30
0.0
  0
SPLINE
  5
137
330
1F
100
AcDbEntity
  8
Andrew
 62
     5
100
AcDbSpline
210
0.0
220
0.0
230
1.0
 70
     8
 71
     3
 72
     8
 73
     4
 74
     0
 42
0.000000001
 43
0.0000001
 40
0.0
 40
0.0
 40
0.0
 40
0.0
 40
1.0
 40
1.0
 40
1.0
 40
1.0
 10
2100.612147
 20
1351.457266
 30
0.0
 10
2099.255148
 20
1336.312267
 30
0.0
 10
2097.230148
 20
1325.175267
 30
0.0
 10
2094.527148
 20
1318.057267
 30
0.0
  0
LWPOLYLINE
  5
138
330
1F
100
AcDbEntity
  8
Andrew
 62
     5
100
AcDbPolyline
 90
        2
 70
     0
 43
0.0
 10
2194.726145
 20
1044.845274
 10
2194.726145
 20
1320.729267
  0
LWPOLYLINE
  5
139
330
1F
100
AcDbEntity
  8
Andrew
 62
     5
100
AcDbPolyline
 90
        2
 70
     0
 43
0.0
 10
2094.527148
 20
1318.057267
 10
2097.867148
 20
1021.465274
  0
SPLINE
  5
13A
330
1F
100
AcDbEntity
  8
Andrew
 62
     5
100
AcDbSpline
210
0.0
220
0.0
230
1.0
 70
     8
 71
     3
 72
     8
 73
     4
 74
     0
 42
0.000000001
 43
0.0000001
 40
0.0
 40
0.0
 40
0.0
 40
0.0
 40
1.0
 40
1.0
 40
1.0
 40
1.0
 10
1988.98215
 20
959.341276
 30
0.0
 10
2013.47015
 20
966.898276
 30
0.0
 10
2025.722149
 20
980.237275
 30
0.0
 10
2025.722149
 20
999.359275
 30
0.0
  0
LWPOLYLINE
  5
13B
330
1F
100
AcDbEntity
  8
Andrew
 62
     5
100
AcDbPolyline
 90
        3
 70
     0
 43
0.0
 10
2138.615147
 20
958.005276
 10
2140.619146
 20
958.005276
 10
1988.98215
 20
959.341276
  0
SPLINE
  5
13C
330
1F
100
AcDbEntity
  8
Andrew
 62
     5
100
AcDbSpline
210
0.0
220
0.0
230
1.0
 70
     8
 71
     3
 72
     8
 73
     4
 74
     0
 42
0.000000001
 43
0.0000001
 40
0.0
 40
0.0
 40
0.0
 40
0.0
 40
1.0
 40
1.0
 40
1.0
 40
1.0
 10
2022.383149
 20
1392.257265
 30
0.0
 10
2020.597149
 20
1407.809265
 30
0.0
 10
2012.36315
 20
1418.925265
 30
0.0
 10
1997.66715
 20
1425.605264
 30
0.0
  0
LWPOLYLINE
  5
13D
330
1F
100
AcDbEntity
  8
Andrew
 62
     5
100
AcDbPolyline
 90
        2
 70
     0
 43
0.0
 10
2025.722149
 20
999.359275
 10
2022.383149
 20
1392.257265
  0
SPLINE
  5
13E
330
1F
100
AcDbEntity
  8
Andrew
 62
     5
100
AcDbSpline
210
0.0
220
0.0
230
1.0
 70
     8
 71
     3
 72
     8
 73
     4
 74
     0
 42
0.000000001
 43
0.0000001
 40
0.0
 40
0.0
 40
0.0
 40
0.0
 40
1.0
 40
1.0
 40
1.0
 40
1.0
 10
2109.222147
 20
1425.605264
 30
0.0
 10
2108.325147
 20
1425.156264
 30
0.0
 10
2107.438147
 20
1424.488264
 30
0.0
 10
2106.551147
 20
1423.601264
 30
0.0
  0
LWPOLYLINE
  5
13F
330
1F
100
AcDbEntity
  8
Andrew
 62
     5
100
AcDbPolyline
 90
        2
 70
     0
 43
0.0
 10
1997.66715
 20
1425.605264
 10
2109.222147
 20
1425.605264
  0
SPLINE
  5
140
330
1F
100
AcDbEntity
  8
Andrew
 62
     5
100
AcDbSpline
210
0.0
220
0.0
230
1.0
 70
     8
 71
     3
 72
     8
 73
     4
 74
     0
 42
0.000000001
 43
0.0000001
 40
0.0
 40
0.0
 40
0.0
 40
0.0
 40
1.0
 40
1.0
 40
1.0
 40
1.0
 10
2113.230147
 20
1423.601264
 30
0.0
 10
2169.343146
 20
1402.694265
 30
0.0
 10
2223.451144
 20
1372.457266
 30
0.0
 10
2275.554143
 20
1332.878267
 30
0.0
  0
SPLINE
  5
141
330
1F
100
AcDbEntity
  8
Andrew
 62
     5
100
AcDbSpline
210
0.0
220
0.0
230
1.0
 70
     8
 71
     3
 72
     8
 73
     4
 74
     0
 42
0.000000001
 43
0.0000001
 40
0.0
 40
0.0
 40
0.0
 40
0.0
 40
1.0
 40
1.0
 40
1.0
 40
1.0
 10
2275.554143
 20
1332.878267
 30
0.0
 10
2279.114143
 20
1268.396268
 30
0.0
 10
2280.898143
 20
1207.70127
 30
0.0
 10
2280.898143
 20
1150.786271
 30
0.0
  0
SPLINE
  5
142
330
1F
100
AcDbEntity
  8
Andrew
 62
     5
100
AcDbSpline
210
0.0
220
0.0
230
1.0
 70
     8
 71
     3
 72
     8
 73
     4
 74
     0
 42
0.000000001
 43
0.0000001
 40
0.0
 40
0.0
 40
0.0
 40
0.0
 40
1.0
 40
1.0
 40
1.0
 40
1.0
 10
2280.898143
 20
1150.786271
 30
0.0
 10
2280.898143
 20
1135.213272
 30
0.0
 10
2280.230143
 20
1112.094272
 30
0.0
 10
2278.894143
 20
1081.407273
 30
0.0
  0
SPLINE
  5
143
330
1F
100
AcDbEntity
  8
Andrew
 62
     5
100
AcDbSpline
210
0.0
220
0.0
230
1.0
 70
     8
 71
     3
 72
     8
 73
     4
 74
     0
 42
0.000000001
 43
0.0000001
 40
0.0
 40
0.0
 40
0.0
 40
0.0
 40
1.0
 40
1.0
 40
1.0
 40
1.0
 10
2278.894143
 20
1081.407273
 30
0.0
 10
2274.887143
 20
1064.061273
 30
0.0
 10
2255.953144
 20
1040.493274
 30
0.0
 10
2222.115144
 20
1010.704275
 30
0.0
  0
SPLINE
  5
144
330
1F
100
AcDbEntity
  8
Andrew
 62
     5
100
AcDbSpline
210
0.0
220
0.0
230
1.0
 70
     8
 71
     3
 72
     8
 73
     4
 74
     0
 42
0.000000001
 43
0.0000001
 40
0.0
 40
0.0
 40
0.0
 40
0.0
 40
1.0
 40
1.0
 40
1.0
 40
1.0
 10
2222.115144
 20
1010.704275
 30
0.0
 10
2203.411145
 20
994.244275
 30
0.0
 10
2184.039145
 20
977.795276
 30
0.0
 10
2163.999146
 20
961.345276
 30
0.0
  0
LWPOLYLINE
  5
145
330
1F
100
AcDbEntity
  8
Andrew
 62
     5
100
AcDbPolyline
 90
        2
 70
     0
 43
0.0
 10
2106.551147
 20
1423.601264
 10
2113.230147
 20
1423.601264
  0
LWPOLYLINE
  5
146
330
1F
100
AcDbEntity
  8
Andrew
 62
     5
100
AcDbPolyline
 90
        3
 70
     0
 43
0.0
 10
2163.999146
 20
961.345276
 10
2143.959146
 20
958.005276
 10
2138.615147
 20
958.005276
  0
SPLINE
  5
147
330
1F
100
AcDbEntity
  8
Andrew
 62
     5
100
AcDbSpline
210
0.0
220
0.0
230
1.0
 70
     8
 71
     3
 72
     8
 73
     4
 74
     0
 42
0.000000001
 43
0.0000001
 40
0.0
 40
0.0
 40
0.0
 40
0.0
 40
1.0
 40
1.0
 40
1.0
 40
1.0
 10
317.007392
 20
390.20499
 30
0.0
 10
320.566392
 20
355.906991
 30
0.0
 10
333.707392
 20
306.704992
 30
0.0
 10
356.419391
 20
242.576994
 30
0.0
  0
SPLINE
  5
148
330
1F
100
AcDbEntity
  8
Andrew
 62
     5
100
AcDbSpline
210
0.0
220
0.0
230
1.0
 70
     8
 71
     3
 72
     8
 73
     4
 74
     0
 42
0.000000001
 43
0.0000001
 40
0.0
 40
0.0
 40
0.0
 40
0.0
 40
1.0
 40
1.0
 40
1.0
 40
1.0
 10
356.419391
 20
242.576994
 30
0.0
 10
380.46739
 20
174.879996
 30
0.0
 10
398.05439
 20
143.044996
 30
0.0
 10
409.19139
 20
147.053996
 30
0.0
  0
SPLINE
  5
149
330
1F
100
AcDbEntity
  8
Andrew
 62
     5
100
AcDbSpline
210
0.0
220
0.0
230
1.0
 70
     8
 71
     3
 72
     8
 73
     4
 74
     0
 42
0.000000001
 43
0.0000001
 40
0.0
 40
0.0
 40
0.0
 40
0.0
 40
1.0
 40
1.0
 40
1.0
 40
1.0
 10
409.19139
 20
147.053996
 30
0.0
 10
420.766389
 20
146.165996
 30
0.0
 10
435.013389
 20
139.934997
 30
0.0
 10
451.943389
 20
128.349997
 30
0.0
  0
SPLINE
  5
14A
330
1F
100
AcDbEntity
  8
Andrew
 62
     5
100
AcDbSpline
210
0.0
220
0.0
230
1.0
 70
     8
 71
     3
 72
     8
 73
     4
 74
     0
 42
0.000000001
 43
0.0000001
 40
0.0
 40
0.0
 40
0.0
 40
0.0
 40
1.0
 40
1.0
 40
1.0
 40
1.0
 10
451.943389
 20
128.349997
 30
0.0
 10
473.319388
 20
113.652997
 30
0.0
 10
491.125388
 20
103.413997
 30
0.0
 10
505.383387
 20
97.620998
 30
0.0
  0
SPLINE
  5
14B
330
1F
100
AcDbEntity
  8
Andrew
 62
     5
100
AcDbSpline
210
0.0
220
0.0
230
1.0
 70
     8
 71
     3
 72
     8
 73
     4
 74
     0
 42
0.000000001
 43
0.0000001
 40
0.0
 40
0.0
 40
0.0
 40
0.0
 40
1.0
 40
1.0
 40
1.0
 40
1.0
 10
505.383387
 20
97.620998
 30
0.0
 10
501.375387
 20
97.182998
 30
0.0
 10
497.137388
 20
96.952998
 30
0.0
 10
492.691388
 20
96.952998
 30
0.0
  0
SPLINE
  5
14C
330
1F
100
AcDbEntity
  8
Andrew
 62
     5
100
AcDbSpline
210
0.0
220
0.0
230
1.0
 70
     8
 71
     3
 72
     8
 73
     4
 74
     0
 42
0.000000001
 43
0.0000001
 40
0.0
 40
0.0
 40
0.0
 40
0.0
 40
1.0
 40
1.0
 40
1.0
 40
1.0
 10
492.691388
 20
96.952998
 30
0.0
 10
476.659388
 20
96.952998
 30
0.0
 10
452.715389
 20
100.960997
 30
0.0
 10
420.881389
 20
108.977997
 30
0.0
  0
SPLINE
  5
14D
330
1F
100
AcDbEntity
  8
Andrew
 62
     5
100
AcDbSpline
210
0.0
220
0.0
230
1.0
 70
     8
 71
     3
 72
     8
 73
     4
 74
     0
 42
0.000000001
 43
0.0000001
 40
0.0
 40
0.0
 40
0.0
 40
0.0
 40
1.0
 40
1.0
 40
1.0
 40
1.0
 10
420.881389
 20
108.977997
 30
0.0
 10
389.03639
 20
116.992997
 30
0.0
 10
365.103391
 20
121.000997
 30
0.0
 10
349.071391
 20
121.000997
 30
0.0
  0
SPLINE
  5
14E
330
1F
100
AcDbEntity
  8
Andrew
 62
     5
100
AcDbSpline
210
0.0
220
0.0
230
1.0
 70
     8
 71
     3
 72
     8
 73
     4
 74
     0
 42
0.000000001
 43
0.0000001
 40
0.0
 40
0.0
 40
0.0
 40
0.0
 40
1.0
 40
1.0
 40
1.0
 40
1.0
 10
349.071391
 20
121.000997
 30
0.0
 10
342.391391
 20
121.000997
 30
0.0
 10
336.379392
 20
120.332997
 30
0.0
 10
331.035392
 20
118.996997
 30
0.0
  0
SPLINE
  5
14F
330
1F
100
AcDbEntity
  8
Andrew
 62
     5
100
AcDbSpline
210
0.0
220
0.0
230
1.0
 70
     8
 71
     3
 72
     8
 73
     4
 74
     0
 42
0.000000001
 43
0.0000001
 40
0.0
 40
0.0
 40
0.0
 40
0.0
 40
1.0
 40
1.0
 40
1.0
 40
1.0
 10
331.035392
 20
118.996997
 30
0.0
 10
334.145392
 20
123.453997
 30
0.0
 10
335.711392
 20
130.133997
 30
0.0
 10
335.711392
 20
139.036997
 30
0.0
  0
SPLINE
  5
150
330
1F
100
AcDbEntity
  8
Andrew
 62
     5
100
AcDbSpline
210
0.0
220
0.0
230
1.0
 70
     8
 71
     3
 72
     8
 73
     4
 74
     0
 42
0.000000001
 43
0.0000001
 40
0.0
 40
0.0
 40
0.0
 40
0.0
 40
1.0
 40
1.0
 40
1.0
 40
1.0
 10
335.711392
 20
139.036997
 30
0.0
 10
335.711392
 20
159.515996
 30
0.0
 10
326.578392
 20
196.923995
 30
0.0
 10
308.323392
 20
251.261994
 30
0.0
  0
SPLINE
  5
151
330
1F
100
AcDbEntity
  8
Andrew
 62
     5
100
AcDbSpline
210
0.0
220
0.0
230
1.0
 70
     8
 71
     3
 72
     8
 73
     4
 74
     0
 42
0.000000001
 43
0.0000001
 40
0.0
 40
0.0
 40
0.0
 40
0.0
 40
1.0
 40
1.0
 40
1.0
 40
1.0
 10
308.323392
 20
251.261994
 30
0.0
 10
285.611393
 20
318.947992
 30
0.0
 10
273.138393
 20
357.691991
 30
0.0
 10
270.915393
 20
367.492991
 30
0.0
  0
LWPOLYLINE
  5
152
330
1F
100
AcDbEntity
  8
Andrew
 62
     5
100
AcDbPolyline
 90
        5
 70
     1
 43
0.0
 10
305.651392
 20
434.292989
 10
297.635393
 20
630.017984
 10
252.211394
 20
608.641985
 10
252.879394
 20
440.973989
 10
285.611393
 20
416.92499
  0
LWPOLYLINE
  5
153
330
1F
100
AcDbEntity
  8
Andrew
 62
     5
100
AcDbPolyline
 90
       19
 70
     0
 43
0.0
 10
270.915393
 20
367.492991
 10
249.539394
 20
400.89399
 10
253.547394
 20
285.996993
 10
228.163394
 20
324.740992
 10
225.491394
 20
330.084992
 10
229.499394
 20
155.736996
 10
208.123395
 20
189.137995
 10
193.427395
 20
28.816999
 10
145.331396
 20
304.700992
 10
169.379396
 20
288.668993
 10
143.995396
 20
454.332989
 10
177.395396
 20
439.637989
 10
149.339396
 20
674.104983
 10
252.211394
 20
674.104983
 10
252.211394
 20
638.032984
 10
302.979392
 20
664.752983
 10
384.47539
 20
565.221986
 10
369.779391
 20
414.25299
 10
317.007392
 20
390.20499
  0
SPLINE
  5
154
330
1F
100
AcDbEntity
  8
Andrew
 62
     5
100
AcDbSpline
210
0.0
220
0.0
230
1.0
 70
     8
 71
     3
 72
     8
 73
     4
 74
     0
 42
0.000000001
 43
0.0000001
 40
0.0
 40
0.0
 40
0.0
 40
0.0
 40
1.0
 40
1.0
 40
1.0
 40
1.0
 10
1111.914272
 20
558.540986
 30
0.0
 10
1098.106273
 20
553.635986
 30
0.0
 10
1084.526273
 20
543.845986
 30
0.0
 10
1071.166273
 20
529.148987
 30
0.0
  0
LWPOLYLINE
  5
155
330
1F
100
AcDbEntity
  8
Andrew
 62
     5
100
AcDbPolyline
 90
        2
 70
     0
 43
0.0
 10
1116.590272
 20
225.208994
 10
1111.914272
 20
558.540986
  0
SPLINE
  5
156
330
1F
100
AcDbEntity
  8
Andrew
 62
     5
100
AcDbSpline
210
0.0
220
0.0
230
1.0
 70
     8
 71
     3
 72
     8
 73
     4
 74
     0
 42
0.000000001
 43
0.0000001
 40
0.0
 40
0.0
 40
0.0
 40
0.0
 40
1.0
 40
1.0
 40
1.0
 40
1.0
 10
1090.538273
 20
628.013984
 30
0.0
 10
1103.449272
 20
626.677984
 30
0.0
 10
1111.685272
 20
624.892984
 30
0.0
 10
1115.254272
 20
622.668984
 30
0.0
  0
SPLINE
  5
157
330
1F
100
AcDbEntity
  8
Andrew
 62
     5
100
AcDbSpline
210
0.0
220
0.0
230
1.0
 70
     8
 71
     3
 72
     8
 73
     4
 74
     0
 42
0.000000001
 43
0.0000001
 40
0.0
 40
0.0
 40
0.0
 40
0.0
 40
1.0
 40
1.0
 40
1.0
 40
1.0
 10
1115.254272
 20
622.668984
 30
0.0
 10
1117.028272
 20
621.770984
 30
0.0
 10
1129.052272
 20
621.332984
 30
0.0
 10
1151.326271
 20
621.332984
 30
0.0
  0
SPLINE
  5
158
330
1F
100
AcDbEntity
  8
Andrew
 62
     5
100
AcDbSpline
210
0.0
220
0.0
230
1.0
 70
     8
 71
     3
 72
     8
 73
     4
 74
     0
 42
0.000000001
 43
0.0000001
 40
0.0
 40
0.0
 40
0.0
 40
0.0
 40
1.0
 40
1.0
 40
1.0
 40
1.0
 10
1151.326271
 20
621.332984
 30
0.0
 10
1215.00627
 20
621.332984
 30
0.0
 10
1274.906268
 20
624.672984
 30
0.0
 10
1331.017267
 20
631.353984
 30
0.0
  0
LWPOLYLINE
  5
159
330
1F
100
AcDbEntity
  8
Andrew
 62
     5
100
AcDbPolyline
 90
        2
 70
     0
 43
0.0
 10
1071.166273
 20
529.148987
 10
1090.538273
 20
628.013984
  0
SPLINE
  5
15A
330
1F
100
AcDbEntity
  8
Andrew
 62
     5
100
AcDbSpline
210
0.0
220
0.0
230
1.0
 70
     8
 71
     3
 72
     8
 73
     4
 74
     0
 42
0.000000001
 43
0.0000001
 40
0.0
 40
0.0
 40
0.0
 40
0.0
 40
1.0
 40
1.0
 40
1.0
 40
1.0
 10
1355.734266
 20
525.141987
 30
0.0
 10
1349.076266
 20
536.716987
 30
0.0
 10
1339.547267
 20
546.401986
 30
0.0
 10
1327.125267
 20
554.198986
 30
0.0
  0
SPLINE
  5
15B
330
1F
100
AcDbEntity
  8
Andrew
 62
     5
100
AcDbSpline
210
0.0
220
0.0
230
1.0
 70
     8
 71
     3
 72
     8
 73
     4
 74
     0
 42
0.000000001
 43
0.0000001
 40
0.0
 40
0.0
 40
0.0
 40
0.0
 40
1.0
 40
1.0
 40
1.0
 40
1.0
 10
1327.125267
 20
554.198986
 30
0.0
 10
1314.704267
 20
561.984986
 30
0.0
 10
1301.835267
 20
565.658986
 30
0.0
 10
1288.527268
 20
565.221986
 30
0.0
  0
LWPOLYLINE
  5
15C
330
1F
100
AcDbEntity
  8
Andrew
 62
     5
100
AcDbPolyline
 90
        2
 70
     0
 43
0.0
 10
1331.017267
 20
631.353984
 10
1355.734266
 20
525.141987
  0
SPLINE
  5
15D
330
1F
100
AcDbEntity
  8
Andrew
 62
     5
100
AcDbSpline
210
0.0
220
0.0
230
1.0
 70
     8
 71
     3
 72
     8
 73
     4
 74
     0
 42
0.000000001
 43
0.0000001
 40
0.0
 40
0.0
 40
0.0
 40
0.0
 40
1.0
 40
1.0
 40
1.0
 40
1.0
 10
1270.230268
 20
422.269989
 30
0.0
 10
1281.805268
 20
424.043989
 30
0.0
 10
1292.274268
 20
436.734989
 30
0.0
 10
1301.626267
 20
460.345988
 30
0.0
  0
LWPOLYLINE
  5
15E
330
1F
100
AcDbEntity
  8
Andrew
 62
     5
100
AcDbPolyline
 90
        5
 70
     0
 43
0.0
 10
1288.527268
 20
565.221986
 10
1186.06227
 20
563.227986
 10
1186.06227
 20
557.246986
 10
1186.06227
 20
422.269989
 10
1270.230268
 20
422.269989
  0
SPLINE
  5
15F
330
1F
100
AcDbEntity
  8
Andrew
 62
     5
100
AcDbSpline
210
0.0
220
0.0
230
1.0
 70
     8
 71
     3
 72
     8
 73
     4
 74
     0
 42
0.000000001
 43
0.0000001
 40
0.0
 40
0.0
 40
0.0
 40
0.0
 40
1.0
 40
1.0
 40
1.0
 40
1.0
 10
1299.622268
 20
334.093992
 30
0.0
 10
1292.180268
 20
358.579991
 30
0.0
 10
1279.060268
 20
370.832991
 30
0.0
 10
1260.252268
 20
370.832991
 30
0.0
  0
LWPOLYLINE
  5
160
330
1F
100
AcDbEntity
  8
Andrew
 62
     5
100
AcDbPolyline
 90
        2
 70
     0
 43
0.0
 10
1301.626267
 20
460.345988
 10
1299.622268
 20
334.093992
  0
SPLINE
  5
161
330
1F
100
AcDbEntity
  8
Andrew
 62
     5
100
AcDbSpline
210
0.0
220
0.0
230
1.0
 70
     8
 71
     3
 72
     8
 73
     4
 74
     0
 42
0.000000001
 43
0.0000001
 40
0.0
 40
0.0
 40
0.0
 40
0.0
 40
1.0
 40
1.0
 40
1.0
 40
1.0
 10
1288.538268
 20
219.864995
 30
0.0
 10
1301.835267
 20
219.415995
 30
0.0
 10
1314.704267
 20
223.090994
 30
0.0
 10
1327.125267
 20
230.887994
 30
0.0
  0
SPLINE
  5
162
330
1F
100
AcDbEntity
  8
Andrew
 62
     5
100
AcDbSpline
210
0.0
220
0.0
230
1.0
 70
     8
 71
     3
 72
     8
 73
     4
 74
     0
 42
0.000000001
 43
0.0000001
 40
0.0
 40
0.0
 40
0.0
 40
0.0
 40
1.0
 40
1.0
 40
1.0
 40
1.0
 10
1327.125267
 20
230.887994
 30
0.0
 10
1339.547267
 20
238.673994
 30
0.0
 10
1349.076266
 20
248.358994
 30
0.0
 10
1355.734266
 20
259.944994
 30
0.0
  0
LWPOLYLINE
  5
163
330
1F
100
AcDbEntity
  8
Andrew
 62
     5
100
AcDbPolyline
 90
        4
 70
     0
 43
0.0
 10
1260.252268
 20
370.832991
 10
1188.73427
 20
370.832991
 10
1188.73427
 20
221.879994
 10
1288.538268
 20
219.864995
  0
SPLINE
  5
164
330
1F
100
AcDbEntity
  8
Andrew
 62
     5
100
AcDbSpline
210
0.0
220
0.0
230
1.0
 70
     8
 71
     3
 72
     8
 73
     4
 74
     0
 42
0.000000001
 43
0.0000001
 40
0.0
 40
0.0
 40
0.0
 40
0.0
 40
1.0
 40
1.0
 40
1.0
 40
1.0
 10
1331.017267
 20
153.732996
 30
0.0
 10
1274.906268
 20
160.412996
 30
0.0
 10
1215.00627
 20
163.752996
 30
0.0
 10
1151.326271
 20
163.752996
 30
0.0
  0
SPLINE
  5
165
330
1F
100
AcDbEntity
  8
Andrew
 62
     5
100
AcDbSpline
210
0.0
220
0.0
230
1.0
 70
     8
 71
     3
 72
     8
 73
     4
 74
     0
 42
0.000000001
 43
0.0000001
 40
0.0
 40
0.0
 40
0.0
 40
0.0
 40
1.0
 40
1.0
 40
1.0
 40
1.0
 10
1151.326271
 20
163.752996
 30
0.0
 10
1129.052272
 20
163.752996
 30
0.0
 10
1117.028272
 20
163.304996
 30
0.0
 10
1115.254272
 20
162.416996
 30
0.0
  0
SPLINE
  5
166
330
1F
100
AcDbEntity
  8
Andrew
 62
     5
100
AcDbSpline
210
0.0
220
0.0
230
1.0
 70
     8
 71
     3
 72
     8
 73
     4
 74
     0
 42
0.000000001
 43
0.0000001
 40
0.0
 40
0.0
 40
0.0
 40
0.0
 40
1.0
 40
1.0
 40
1.0
 40
1.0
 10
1115.254272
 20
162.416996
 30
0.0
 10
1111.685272
 20
160.183996
 30
0.0
 10
1103.449272
 20
158.408996
 30
0.0
 10
1090.538273
 20
157.072996
 30
0.0
  0
LWPOLYLINE
  5
167
330
1F
100
AcDbEntity
  8
Andrew
 62
     5
100
AcDbPolyline
 90
        2
 70
     0
 43
0.0
 10
1355.734266
 20
259.944994
 10
1331.017267
 20
153.732996
  0
SPLINE
  5
168
330
1F
100
AcDbEntity
  8
Andrew
 62
     5
100
AcDbSpline
210
0.0
220
0.0
230
1.0
 70
     8
 71
     3
 72
     8
 73
     4
 74
     0
 42
0.000000001
 43
0.0000001
 40
0.0
 40
0.0
 40
0.0
 40
0.0
 40
1.0
 40
1.0
 40
1.0
 40
1.0
 10
1071.166273
 20
255.937994
 30
0.0
 10
1086.300273
 20
239.455994
 30
0.0
 10
1101.445272
 20
229.217994
 30
0.0
 10
1116.590272
 20
225.208994
 30
0.0
  0
LWPOLYLINE
  5
169
330
1F
100
AcDbEntity
  8
Andrew
 62
     5
100
AcDbPolyline
 90
        2
 70
     0
 43
0.0
 10
1090.538273
 20
157.072996
 10
1071.166273
 20
255.937994
  0
LWPOLYLINE
  5
16A
330
1F
100
AcDbEntity
  8
Andrew
 62
     5
100
AcDbPolyline
 90
        2
 70
     1
 43
0.0
 10
1116.590272
 20
225.208994
 10
1116.590272
 20
225.208994
  0
SPLINE
  5
16B
330
1F
100
AcDbEntity
  8
Andrew
 62
     5
100
AcDbSpline
210
0.0
220
0.0
230
1.0
 70
     8
 71
     3
 72
     8
 73
     4
 74
     0
 42
0.000000001
 43
0.0000001
 40
0.0
 40
0.0
 40
0.0
 40
0.0
 40
1.0
 40
1.0
 40
1.0
 40
1.0
 10
2272.886643
 20
255.269694
 30
0.0
 10
2272.437643
 20
250.363694
 30
0.0
 10
2272.218643
 20
249.256694
 30
0.0
 10
2272.218643
 20
251.929694
 30
0.0
  0
SPLINE
  5
16C
330
1F
100
AcDbEntity
  8
Andrew
 62
     5
100
AcDbSpline
210
0.0
220
0.0
230
1.0
 70
     8
 71
     3
 72
     8
 73
     4
 74
     0
 42
0.000000001
 43
0.0000001
 40
0.0
 40
0.0
 40
0.0
 40
0.0
 40
1.0
 40
1.0
 40
1.0
 40
1.0
 10
2272.218643
 20
251.929694
 30
0.0
 10
2265.537643
 20
246.584694
 30
0.0
 10
2257.522644
 20
235.667694
 30
0.0
 10
2248.170644
 20
219.197695
 30
0.0
  0
SPLINE
  5
16D
330
1F
100
AcDbEntity
  8
Andrew
 62
     5
100
AcDbSpline
210
0.0
220
0.0
230
1.0
 70
     8
 71
     3
 72
     8
 73
     4
 74
     0
 42
0.000000001
 43
0.0000001
 40
0.0
 40
0.0
 40
0.0
 40
0.0
 40
1.0
 40
1.0
 40
1.0
 40
1.0
 10
2248.170644
 20
219.197695
 30
0.0
 10
2238.818644
 20
202.716695
 30
0.0
 10
2231.908644
 20
192.696695
 30
0.0
 10
2227.461644
 20
189.137695
 30
0.0
  0
SPLINE
  5
16E
330
1F
100
AcDbEntity
  8
Andrew
 62
     5
100
AcDbSpline
210
0.0
220
0.0
230
1.0
 70
     8
 71
     3
 72
     8
 73
     4
 74
     0
 42
0.000000001
 43
0.0000001
 40
0.0
 40
0.0
 40
0.0
 40
0.0
 40
1.0
 40
1.0
 40
1.0
 40
1.0
 10
2227.461644
 20
189.137695
 30
0.0
 10
2198.957645
 20
166.863696
 30
0.0
 10
2181.808645
 20
155.737696
 30
0.0
 10
2176.026646
 20
155.737696
 30
0.0
  0
SPLINE
  5
16F
330
1F
100
AcDbEntity
  8
Andrew
 62
     5
100
AcDbSpline
210
0.0
220
0.0
230
1.0
 70
     8
 71
     3
 72
     8
 73
     4
 74
     0
 42
0.000000001
 43
0.0000001
 40
0.0
 40
0.0
 40
0.0
 40
0.0
 40
1.0
 40
1.0
 40
1.0
 40
1.0
 10
2176.026646
 20
155.737696
 30
0.0
 10
2172.456646
 20
155.737696
 30
0.0
 10
2169.784646
 20
156.843696
 30
0.0
 10
2168.010646
 20
159.076696
 30
0.0
  0
LWPOLYLINE
  5
170
330
1F
100
AcDbEntity
  8
Andrew
 62
     5
100
AcDbPolyline
 90
        2
 70
     0
 43
0.0
 10
2336.346642
 20
169.097696
 10
2272.886643
 20
255.269694
  0
SPLINE
  5
171
330
1F
100
AcDbEntity
  8
Andrew
 62
     5
100
AcDbSpline
210
0.0
220
0.0
230
1.0
 70
     8
 71
     3
 72
     8
 73
     4
 74
     0
 42
0.000000001
 43
0.0000001
 40
0.0
 40
0.0
 40
0.0
 40
0.0
 40
1.0
 40
1.0
 40
1.0
 40
1.0
 10
2097.201648
 20
255.269694
 30
0.0
 10
2094.530648
 20
257.492694
 30
0.0
 10
2092.964648
 20
281.759693
 30
0.0
 10
2092.526648
 20
328.080692
 30
0.0
  0
LWPOLYLINE
  5
172
330
1F
100
AcDbEntity
  8
Andrew
 62
     5
100
AcDbPolyline
 90
        2
 70
     0
 43
0.0
 10
2168.010646
 20
159.076696
 10
2097.201648
 20
255.269694
  0
SPLINE
  5
173
330
1F
100
AcDbEntity
  8
Andrew
 62
     5
100
AcDbSpline
210
0.0
220
0.0
230
1.0
 70
     8
 71
     3
 72
     8
 73
     4
 74
     0
 42
0.000000001
 43
0.0000001
 40
0.0
 40
0.0
 40
0.0
 40
0.0
 40
1.0
 40
1.0
 40
1.0
 40
1.0
 10
2091.190648
 20
479.717688
 30
0.0
 10
2091.190648
 20
489.069688
 30
0.0
 10
2091.524648
 20
502.868687
 30
0.0
 10
2092.192648
 20
521.133687
 30
0.0
  0
SPLINE
  5
174
330
1F
100
AcDbEntity
  8
Andrew
 62
     5
100
AcDbSpline
210
0.0
220
0.0
230
1.0
 70
     8
 71
     3
 72
     8
 73
     4
 74
     0
 42
0.000000001
 43
0.0000001
 40
0.0
 40
0.0
 40
0.0
 40
0.0
 40
1.0
 40
1.0
 40
1.0
 40
1.0
 10
2092.192648
 20
521.133687
 30
0.0
 10
2092.860648
 20
539.388687
 30
0.0
 10
2093.194648
 20
553.197686
 30
0.0
 10
2093.194648
 20
562.548686
 30
0.0
  0
SPLINE
  5
175
330
1F
100
AcDbEntity
  8
Andrew
 62
     5
100
AcDbSpline
210
0.0
220
0.0
230
1.0
 70
     8
 71
     3
 72
     8
 73
     4
 74
     0
 42
0.000000001
 43
0.0000001
 40
0.0
 40
0.0
 40
0.0
 40
0.0
 40
1.0
 40
1.0
 40
1.0
 40
1.0
 10
2093.194648
 20
562.548686
 30
0.0
 10
2093.194648
 20
578.580686
 30
0.0
 10
2079.385648
 20
589.707685
 30
0.0
 10
2051.778649
 20
595.949685
 30
0.0
  0
LWPOLYLINE
  5
176
330
1F
100
AcDbEntity
  8
Andrew
 62
     5
100
AcDbPolyline
 90
        2
 70
     0
 43
0.0
 10
2092.526648
 20
328.080692
 10
2091.190648
 20
479.717688
  0
SPLINE
  5
177
330
1F
100
AcDbEntity
  8
Andrew
 62
     5
100
AcDbSpline
210
0.0
220
0.0
230
1.0
 70
     8
 71
     3
 72
     8
 73
     4
 74
     0
 42
0.000000001
 43
0.0000001
 40
0.0
 40
0.0
 40
0.0
 40
0.0
 40
1.0
 40
1.0
 40
1.0
 40
1.0
 10
2195.398645
 20
591.273685
 30
0.0
 10
2178.030646
 20
586.816685
 30
0.0
 10
2168.678646
 20
577.244686
 30
0.0
 10
2167.342646
 20
562.548686
 30
0.0
  0
SPLINE
  5
178
330
1F
100
AcDbEntity
  8
Andrew
 62
     5
100
AcDbSpline
210
0.0
220
0.0
230
1.0
 70
     8
 71
     3
 72
     8
 73
     4
 74
     0
 42
0.000000001
 43
0.0000001
 40
0.0
 40
0.0
 40
0.0
 40
0.0
 40
1.0
 40
1.0
 40
1.0
 40
1.0
 10
2167.342646
 20
562.548686
 30
0.0
 10
2168.010646
 20
557.643686
 30
0.0
 10
2168.678646
 20
524.243687
 30
0.0
 10
2169.346646
 20
462.349688
 30
0.0
  0
LWPOLYLINE
  5
179
330
1F
100
AcDbEntity
  8
Andrew
 62
     5
100
AcDbPolyline
 90
        3
 70
     0
 43
0.0
 10
2051.778649
 20
595.949685
 10
2115.238647
 20
597.952685
 10
2195.398645
 20
591.273685
  0
SPLINE
  5
17A
330
1F
100
AcDbEntity
  8
Andrew
 62
     5
100
AcDbSpline
210
0.0
220
0.0
230
1.0
 70
     8
 71
     3
 72
     8
 73
     4
 74
     0
 42
0.000000001
 43
0.0000001
 40
0.0
 40
0.0
 40
0.0
 40
0.0
 40
1.0
 40
1.0
 40
1.0
 40
1.0
 10
2169.346646
 20
359.477691
 30
0.0
 10
2170.233646
 20
296.685693
 30
0.0
 10
2171.788646
 20
262.836693
 30
0.0
 10
2174.022646
 20
257.941694
 30
0.0
  0
SPLINE
  5
17B
330
1F
100
AcDbEntity
  8
Andrew
 62
     5
100
AcDbSpline
210
0.0
220
0.0
230
1.0
 70
     8
 71
     3
 72
     8
 73
     4
 74
     0
 42
0.000000001
 43
0.0000001
 40
0.0
 40
0.0
 40
0.0
 40
0.0
 40
1.0
 40
1.0
 40
1.0
 40
1.0
 10
2174.022646
 20
257.941694
 30
0.0
 10
2178.917646
 20
247.691694
 30
0.0
 10
2186.046645
 20
242.576694
 30
0.0
 10
2195.398645
 20
242.576694
 30
0.0
  0
SPLINE
  5
17C
330
1F
100
AcDbEntity
  8
Andrew
 62
     5
100
AcDbSpline
210
0.0
220
0.0
230
1.0
 70
     8
 71
     3
 72
     8
 73
     4
 74
     0
 42
0.000000001
 43
0.0000001
 40
0.0
 40
0.0
 40
0.0
 40
0.0
 40
1.0
 40
1.0
 40
1.0
 40
1.0
 10
2195.398645
 20
242.576694
 30
0.0
 10
2198.070645
 20
242.576694
 30
0.0
 10
2200.742645
 20
242.796694
 30
0.0
 10
2203.413645
 20
243.244694
 30
0.0
  0
SPLINE
  5
17D
330
1F
100
AcDbEntity
  8
Andrew
 62
     5
100
AcDbSpline
210
0.0
220
0.0
230
1.0
 70
     8
 71
     3
 72
     8
 73
     4
 74
     0
 42
0.000000001
 43
0.0000001
 40
0.0
 40
0.0
 40
0.0
 40
0.0
 40
1.0
 40
1.0
 40
1.0
 40
1.0
 10
2203.413645
 20
243.244694
 30
0.0
 10
2213.653645
 20
261.500693
 30
0.0
 10
2228.130644
 20
283.763693
 30
0.0
 10
2246.833644
 20
310.044692
 30
0.0
  0
LWPOLYLINE
  5
17E
330
1F
100
AcDbEntity
  8
Andrew
 62
     5
100
AcDbPolyline
 90
        2
 70
     0
 43
0.0
 10
2169.346646
 20
462.349688
 10
2169.346646
 20
359.477691
  0
SPLINE
  5
17F
330
1F
100
AcDbEntity
  8
Andrew
 62
     5
100
AcDbSpline
210
0.0
220
0.0
230
1.0
 70
     8
 71
     3
 72
     8
 73
     4
 74
     0
 42
0.000000001
 43
0.0000001
 40
0.0
 40
0.0
 40
0.0
 40
0.0
 40
1.0
 40
1.0
 40
1.0
 40
1.0
 10
2243.493644
 20
471.033688
 30
0.0
 10
2243.932644
 20
478.151688
 30
0.0
 10
2247.272644
 20
482.827688
 30
0.0
 10
2253.514644
 20
485.061688
 30
0.0
  0
LWPOLYLINE
  5
180
330
1F
100
AcDbEntity
  8
Andrew
 62
     5
100
AcDbPolyline
 90
        2
 70
     0
 43
0.0
 10
2246.833644
 20
310.044692
 10
2243.493644
 20
471.033688
  0
SPLINE
  5
181
330
1F
100
AcDbEntity
  8
Andrew
 62
     5
100
AcDbSpline
210
0.0
220
0.0
230
1.0
 70
     8
 71
     3
 72
     8
 73
     4
 74
     0
 42
0.000000001
 43
0.0000001
 40
0.0
 40
0.0
 40
0.0
 40
0.0
 40
1.0
 40
1.0
 40
1.0
 40
1.0
 10
2292.926643
 20
526.477687
 30
0.0
 10
2289.805643
 20
523.805687
 30
0.0
 10
2288.249643
 20
521.133687
 30
0.0
 10
2288.249643
 20
518.460687
 30
0.0
  0
SPLINE
  5
182
330
1F
100
AcDbEntity
  8
Andrew
 62
     5
100
AcDbSpline
210
0.0
220
0.0
230
1.0
 70
     8
 71
     3
 72
     8
 73
     4
 74
     0
 42
0.000000001
 43
0.0000001
 40
0.0
 40
0.0
 40
0.0
 40
0.0
 40
1.0
 40
1.0
 40
1.0
 40
1.0
 10
2288.249643
 20
518.460687
 30
0.0
 10
2288.249643
 20
517.124687
 30
0.0
 10
2290.254643
 20
514.004687
 30
0.0
 10
2294.262643
 20
509.109687
 30
0.0
  0
SPLINE
  5
183
330
1F
100
AcDbEntity
  8
Andrew
 62
     5
100
AcDbSpline
210
0.0
220
0.0
230
1.0
 70
     8
 71
     3
 72
     8
 73
     4
 74
     0
 42
0.000000001
 43
0.0000001
 40
0.0
 40
0.0
 40
0.0
 40
0.0
 40
1.0
 40
1.0
 40
1.0
 40
1.0
 10
2294.262643
 20
509.109687
 30
0.0
 10
2298.270643
 20
504.203687
 30
0.0
 10
2300.274642
 20
500.644687
 30
0.0
 10
2300.274642
 20
498.420688
 30
0.0
  0
SPLINE
  5
184
330
1F
100
AcDbEntity
  8
Andrew
 62
     5
100
AcDbSpline
210
0.0
220
0.0
230
1.0
 70
     8
 71
     3
 72
     8
 73
     4
 74
     0
 42
0.000000001
 43
0.0000001
 40
0.0
 40
0.0
 40
0.0
 40
0.0
 40
1.0
 40
1.0
 40
1.0
 40
1.0
 10
2300.274642
 20
498.420688
 30
0.0
 10
2300.274642
 20
424.492689
 30
0.0
 10
2302.716642
 20
351.460691
 30
0.0
 10
2307.621642
 20
279.317693
 30
0.0
  0
SPLINE
  5
185
330
1F
100
AcDbEntity
  8
Andrew
 62
     5
100
AcDbSpline
210
0.0
220
0.0
230
1.0
 70
     8
 71
     3
 72
     8
 73
     4
 74
     0
 42
0.000000001
 43
0.0000001
 40
0.0
 40
0.0
 40
0.0
 40
0.0
 40
1.0
 40
1.0
 40
1.0
 40
1.0
 10
2307.621642
 20
279.317693
 30
0.0
 10
2307.621642
 20
276.196693
 30
0.0
 10
2310.513642
 20
272.303693
 30
0.0
 10
2316.306642
 20
267.626693
 30
0.0
  0
SPLINE
  5
186
330
1F
100
AcDbEntity
  8
Andrew
 62
     5
100
AcDbSpline
210
0.0
220
0.0
230
1.0
 70
     8
 71
     3
 72
     8
 73
     4
 74
     0
 42
0.000000001
 43
0.0000001
 40
0.0
 40
0.0
 40
0.0
 40
0.0
 40
1.0
 40
1.0
 40
1.0
 40
1.0
 10
2316.306642
 20
267.626693
 30
0.0
 10
2322.088642
 20
262.951693
 30
0.0
 10
2325.209642
 20
259.715694
 30
0.0
 10
2325.658642
 20
257.941694
 30
0.0
  0
SPLINE
  5
187
330
1F
100
AcDbEntity
  8
Andrew
 62
     5
100
AcDbSpline
210
0.0
220
0.0
230
1.0
 70
     8
 71
     3
 72
     8
 73
     4
 74
     0
 42
0.000000001
 43
0.0000001
 40
0.0
 40
0.0
 40
0.0
 40
0.0
 40
1.0
 40
1.0
 40
1.0
 40
1.0
 10
2325.658642
 20
257.941694
 30
0.0
 10
2330.553642
 20
243.244694
 30
0.0
 10
2334.342642
 20
234.331694
 30
0.0
 10
2337.014642
 20
231.221694
 30
0.0
  0
SPLINE
  5
188
330
1F
100
AcDbEntity
  8
Andrew
 62
     5
100
AcDbSpline
210
0.0
220
0.0
230
1.0
 70
     8
 71
     3
 72
     8
 73
     4
 74
     0
 42
0.000000001
 43
0.0000001
 40
0.0
 40
0.0
 40
0.0
 40
0.0
 40
1.0
 40
1.0
 40
1.0
 40
1.0
 10
2337.014642
 20
231.221694
 30
0.0
 10
2343.244641
 20
232.557694
 30
0.0
 10
2363.284641
 20
255.707694
 30
0.0
 10
2397.13464
 20
300.693692
 30
0.0
  0
SPLINE
  5
189
330
1F
100
AcDbEntity
  8
Andrew
 62
     5
100
AcDbSpline
210
0.0
220
0.0
230
1.0
 70
     8
 71
     3
 72
     8
 73
     4
 74
     0
 42
0.000000001
 43
0.0000001
 40
0.0
 40
0.0
 40
0.0
 40
0.0
 40
1.0
 40
1.0
 40
1.0
 40
1.0
 10
2397.13464
 20
300.693692
 30
0.0
 10
2396.23664
 20
315.389692
 30
0.0
 10
2396.46664
 20
353.016691
 30
0.0
 10
2397.80264
 20
413.58469
 30
0.0
  0
SPLINE
  5
18A
330
1F
100
AcDbEntity
  8
Andrew
 62
     5
100
AcDbSpline
210
0.0
220
0.0
230
1.0
 70
     8
 71
     3
 72
     8
 73
     4
 74
     0
 42
0.000000001
 43
0.0000001
 40
0.0
 40
0.0
 40
0.0
 40
0.0
 40
1.0
 40
1.0
 40
1.0
 40
1.0
 10
2397.80264
 20
413.58469
 30
0.0
 10
2398.68964
 20
450.993689
 30
0.0
 10
2397.35364
 20
487.951688
 30
0.0
 10
2393.79364
 20
524.473687
 30
0.0
  0
SPLINE
  5
18B
330
1F
100
AcDbEntity
  8
Andrew
 62
     5
100
AcDbSpline
210
0.0
220
0.0
230
1.0
 70
     8
 71
     3
 72
     8
 73
     4
 74
     0
 42
0.000000001
 43
0.0000001
 40
0.0
 40
0.0
 40
0.0
 40
0.0
 40
1.0
 40
1.0
 40
1.0
 40
1.0
 10
2393.79364
 20
524.473687
 30
0.0
 10
2391.56064
 20
546.736686
 30
0.0
 10
2380.20464
 20
560.315686
 30
0.0
 10
2359.726641
 20
565.221686
 30
0.0
  0
SPLINE
  5
18C
330
1F
100
AcDbEntity
  8
Andrew
 62
     5
100
AcDbSpline
210
0.0
220
0.0
230
1.0
 70
     8
 71
     3
 72
     8
 73
     4
 74
     0
 42
0.000000001
 43
0.0000001
 40
0.0
 40
0.0
 40
0.0
 40
0.0
 40
1.0
 40
1.0
 40
1.0
 40
1.0
 10
2359.726641
 20
565.221686
 30
0.0
 10
2369.516641
 20
565.221686
 30
0.0
 10
2383.99264
 20
564.887686
 30
0.0
 10
2403.14664
 20
564.219686
 30
0.0
  0
SPLINE
  5
18D
330
1F
100
AcDbEntity
  8
Andrew
 62
     5
100
AcDbSpline
210
0.0
220
0.0
230
1.0
 70
     8
 71
     3
 72
     8
 73
     4
 74
     0
 42
0.000000001
 43
0.0000001
 40
0.0
 40
0.0
 40
0.0
 40
0.0
 40
1.0
 40
1.0
 40
1.0
 40
1.0
 10
2403.14664
 20
564.219686
 30
0.0
 10
2422.288639
 20
563.551686
 30
0.0
 10
2436.765639
 20
563.217686
 30
0.0
 10
2446.566639
 20
563.217686
 30
0.0
  0
SPLINE
  5
18E
330
1F
100
AcDbEntity
  8
Andrew
 62
     5
100
AcDbSpline
210
0.0
220
0.0
230
1.0
 70
     8
 71
     3
 72
     8
 73
     4
 74
     0
 42
0.000000001
 43
0.0000001
 40
0.0
 40
0.0
 40
0.0
 40
0.0
 40
1.0
 40
1.0
 40
1.0
 40
1.0
 10
2446.566639
 20
563.217686
 30
0.0
 10
2453.245639
 20
563.217686
 30
0.0
 10
2462.932638
 20
563.551686
 30
0.0
 10
2475.623638
 20
564.219686
 30
0.0
  0
SPLINE
  5
18F
330
1F
100
AcDbEntity
  8
Andrew
 62
     5
100
AcDbSpline
210
0.0
220
0.0
230
1.0
 70
     8
 71
     3
 72
     8
 73
     4
 74
     0
 42
0.000000001
 43
0.0000001
 40
0.0
 40
0.0
 40
0.0
 40
0.0
 40
1.0
 40
1.0
 40
1.0
 40
1.0
 10
2475.623638
 20
564.219686
 30
0.0
 10
2488.316638
 20
564.887686
 30
0.0
 10
2498.001638
 20
565.221686
 30
0.0
 10
2504.682637
 20
565.221686
 30
0.0
  0
SPLINE
  5
190
330
1F
100
AcDbEntity
  8
Andrew
 62
     5
100
AcDbSpline
210
0.0
220
0.0
230
1.0
 70
     8
 71
     3
 72
     8
 73
     4
 74
     0
 42
0.000000001
 43
0.0000001
 40
0.0
 40
0.0
 40
0.0
 40
0.0
 40
1.0
 40
1.0
 40
1.0
 40
1.0
 10
2504.682637
 20
565.221686
 30
0.0
 10
2488.650638
 20
558.092686
 30
0.0
 10
2479.736638
 20
553.635686
 30
0.0
 10
2477.961638
 20
551.861686
 30
0.0
  0
SPLINE
  5
191
330
1F
100
AcDbEntity
  8
Andrew
 62
     5
100
AcDbSpline
210
0.0
220
0.0
230
1.0
 70
     8
 71
     3
 72
     8
 73
     4
 74
     0
 42
0.000000001
 43
0.0000001
 40
0.0
 40
0.0
 40
0.0
 40
0.0
 40
1.0
 40
1.0
 40
1.0
 40
1.0
 10
2477.961638
 20
551.861686
 30
0.0
 10
2472.169638
 20
547.404686
 30
0.0
 10
2469.278638
 20
538.720687
 30
0.0
 10
2469.278638
 20
525.809687
 30
0.0
  0
LWPOLYLINE
  5
192
330
1F
100
AcDbEntity
  8
Andrew
 62
     5
100
AcDbPolyline
 90
        3
 70
     0
 43
0.0
 10
2253.514644
 20
485.061688
 10
2292.926643
 20
530.485687
 10
2292.926643
 20
526.477687
  0
SPLINE
  5
193
330
1F
100
AcDbEntity
  8
Andrew
 62
     5
100
AcDbSpline
210
0.0
220
0.0
230
1.0
 70
     8
 71
     3
 72
     8
 73
     4
 74
     0
 42
0.000000001
 43
0.0000001
 40
0.0
 40
0.0
 40
0.0
 40
0.0
 40
1.0
 40
1.0
 40
1.0
 40
1.0
 10
2361.062641
 20
163.084696
 30
0.0
 10
2358.828641
 20
161.748696
 30
0.0
 10
2357.054641
 20
161.080696
 30
0.0
 10
2355.718641
 20
161.080696
 30
0.0
  0
SPLINE
  5
194
330
1F
100
AcDbEntity
  8
Andrew
 62
     5
100
AcDbSpline
210
0.0
220
0.0
230
1.0
 70
     8
 71
     3
 72
     8
 73
     4
 74
     0
 42
0.000000001
 43
0.0000001
 40
0.0
 40
0.0
 40
0.0
 40
0.0
 40
1.0
 40
1.0
 40
1.0
 40
1.0
 10
2355.718641
 20
161.080696
 30
0.0
 10
2345.917641
 20
164.191696
 30
0.0
 10
2339.456642
 20
166.863696
 30
0.0
 10
2336.346642
 20
169.097696
 30
0.0
  0
LWPOLYLINE
  5
195
330
1F
100
AcDbEntity
  8
Andrew
 62
     5
100
AcDbPolyline
 90
        3
 70
     0
 43
0.0
 10
2469.278638
 20
525.809687
 10
2471.282638
 20
310.712692
 10
2361.062641
 20
163.084696
  0
LWPOLYLINE
  5
196
330
1F
100
AcDbEntity
  8
Andrew
 62
     5
100
AcDbPolyline
 90
        2
 70
     1
 43
0.0
 10
2336.346642
 20
169.097696
 10
2336.346642
 20
169.097696
  0
ENDSEC
  0
SECTION
  2
OBJECTS
  0
DICTIONARY
  5
C
330
0
100
AcDbDictionary
281
     1
  3
ACAD_DETAILVIEWSTYLE
350
10054
  3
ACAD_GROUP
350
D
  3
ACAD_IMAGE_VARS
350
1004B
  3
ACAD_LAYOUT
350
10025
  3
ACAD_MATERIAL
350
10041
  3
ACAD_MLEADERSTYLE
350
10047
  3
ACAD_MLINESTYLE
350
17
  3
ACAD_PLOTSETTINGS
350
10000
  3
ACAD_PLOTSTYLENAME
350
10001
  3
ACAD_SCALELIST
350
10003
  3
ACAD_SECTIONVIEWSTYLE
350
10055
  3
ACAD_TABLESTYLE
350
10045
  3
ACAD_VISUALSTYLE
350
10028
  3
ACDB_RECOMPOSE_DATA
350
10050
  3
AcDbVariableDictionary
350
1004C
  3
APPDATA
350
10049
  0
SUN
  5
1004A
330
2E
100
AcDbSun
 90
        1
290
     0
 63
     7
421
 16777215
 40
1.0
291
     1
 91
  2455826
 92
 54000000
292
     0
 70
     2
 71
   256
280
     1
  0
DICTIONARY
  5
10054
102
{ACAD_REACTORS
330
C
102
}
330
C
100
AcDbDictionary
281
     1
  0
DICTIONARY
  5
D
330
C
100
AcDbDictionary
281
     1
  0
RASTERVARIABLES
  5
1004B
102
{ACAD_REACTORS
330
C
102
}
330
C
100
AcDbRasterVariables
 90
        0
 70
     1
 71
     1
 72
     0
  0
DICTIONARY
  5
10025
102
{ACAD_REACTORS
330
C
102
}
330
C
100
AcDbDictionary
281
     1
  3
Model
350
10026
  3
Sheet 1
350
10027
  0
DICTIONARY
  5
10041
102
{ACAD_REACTORS
330
C
102
}
330
C
100
AcDbDictionary
281
     1
  3
ByBlock
350
10043
  3
ByLayer
350
10042
  3
Global
350
10044
  0
DICTIONARY
  5
10047
102
{ACAD_REACTORS
330
C
102
}
330
C
100
AcDbDictionary
281
     1
  3
Standard
350
10048
  0
DICTIONARY
  5
17
330
C
100
AcDbDictionary
281
     1
  3
STANDARD
350
FFFF
  0
DICTIONARY
  5
10000
102
{ACAD_REACTORS
330
C
102
}
330
C
100
AcDbDictionary
281
     1
  0
ACDBDICTIONARYWDFLT
  5
10001
102
{ACAD_REACTORS
330
C
102
}
330
C
100
AcDbDictionary
281
     1
  3
Normal
350
10002
100
AcDbDictionaryWithDefault
340
10002
  0
DICTIONARY
  5
10003
102
{ACAD_REACTORS
330
C
102
}
330
C
100
AcDbDictionary
281
     1
  3
A0
350
10004
  3
A1
350
10005
  3
A2
350
10006
  3
A3
350
10007
  3
A4
350
10008
  3
A5
350
10009
  3
A6
350
1000A
  3
A7
350
1000B
  3
A8
350
1000C
  3
A9
350
1000D
  3
B0
350
1000E
  3
B1
350
1000F
  3
B2
350
10010
  3
B3
350
10011
  3
B4
350
10012
  3
B5
350
10013
  3
B6
350
10014
  3
B7
350
10015
  3
B8
350
10016
  3
B9
350
10017
  3
C0
350
10018
  3
C1
350
10019
  3
C2
350
1001A
  3
C3
350
1001B
  3
C4
350
1001C
  3
C5
350
1001D
  3
C6
350
1001E
  3
C7
350
1001F
  3
C8
350
10020
  3
C9
350
10021
  3
D0
350
10022
  3
D1
350
10023
  3
D2
350
10024
  0
DICTIONARY
  5
10055
102
{ACAD_REACTORS
330
C
102
}
330
C
100
AcDbDictionary
281
     1
  0
DICTIONARY
  5
10045
102
{ACAD_REACTORS
330
C
102
}
330
C
100
AcDbDictionary
281
     1
  3
Standard
350
10046
  0
DICTIONARY
  5
10028
102
{ACAD_REACTORS
330
C
102
}
330
C
100
AcDbDictionary
281
     1
  3
2dWireframe
350
1002D
  3
Basic
350
10030
  3
Brighten
350
10034
  3
ColorChange
350
10038
  3
Conceptual
350
10032
  3
Dim
350
10033
  3
EdgeColorOff
350
1003B
  3
Facepattern
350
10037
  3
Flat
350
10029
  3
FlatWithEdges
350
1002A
  3
Gouraud
350
1002B
  3
GouraudWithEdges
350
1002C
  3
Hidden
350
1002F
  3
JitterOff
350
10039
  3
Linepattern
350
10036
  3
OverhangOff
350
1003A
  3
Realistic
350
10031
  3
Shaded
350
10040
  3
Shaded with edges
350
1003F
  3
Shades of Gray
350
1003C
  3
Sketchy
350
1003D
  3
Thicken
350
10035
  3
Wireframe
350
1002E
  3
X-Ray
350
1003E
  0
XRECORD
  5
10050
102
{ACAD_REACTORS
330
C
102
}
330
C
100
AcDbXrecord
280
     1
 90
        1
330
10046
  0
DICTIONARY
  5
1004C
102
{ACAD_REACTORS
330
C
102
}
330
C
100
AcDbDictionary
281
     1
  3
CANNOSCALE
350
1004D
  3
CMLEADERSTYLE
350
10052
  3
CTABLESTYLE
350
10051
  3
MSLTSCALE
350
10053
  0
DICTIONARY
  5
10049
102
{ACAD_REACTORS
330
C
102
}
330
C
100
AcDbDictionary
281
     1
  0
LAYOUT
  5
10026
102
{ACAD_REACTORS
330
10025
102
}
330
10025
100
AcDbPlotSettings
  1

  2
none_device
  4
Letter_(8.50_x_11.00_Inches)
  6

 40
6.35
 41
6.35
 42
6.35
 43
6.35
 44
215.9
 45
279.4
 46
0.0
 47
0.0
 48
0.0
 49
0.0
140
0.0
141
0.0
142
1.0
143
52.855
 70
  1712
 72
     0
 73
     0
 74
     0
  7

 75
     0
 76
     0
 77
     2
 78
   300
147
0.0189196859332135
148
36.06799999999968
149
558.8
100
AcDbLayout
  1
Model
 70
     1
 71
     0
 10
0.0
 20
0.0
 11
12.0
 21
9.0
 12
0.0
 22
0.0
 32
0.0
 14
143.995396
 24
28.81699900000001
 34
0.0
 15
2504.682637
 25
1425.605264
 35
0.0
146
0.0
 13
0.0
 23
0.0
 33
0.0
 16
1.0
 26
0.0
 36
0.0
 17
0.0
 27
1.0
 37
0.0
 76
     0
330
1F
331
2E
  0
LAYOUT
  5
10027
102
{ACAD_REACTORS
330
10025
102
}
330
10025
100
AcDbPlotSettings
  1

  2
none_device
  4

  6

 40
0.0
 41
0.0
 42
0.0
 43
0.0
 44
0.0
 45
0.0
 46
0.0
 47
0.0
 48
0.0
 49
0.0
140
0.0
141
0.0
142
1.0
143
1.0
 70
   688
 72
     1
 73
     0
 74
     5
  7

 75
    16
 76
     0
 77
     2
 78
   300
147
1.0
148
0.0
149
0.0
100
AcDbLayout
  1
Sheet 1
 70
     1
 71
     1
 10
0.0
 20
0.0
 11
0.0
 21
0.0
 12
0.0
 22
0.0
 32
0.0
 14
1.000000000000000E+20
 24
1.000000000000000E+20
 34
1.000000000000000E+20
 15
-1.000000000000000E+20
 25
-1.000000000000000E+20
 35
-1.000000000000000E+20
146
0.0
 13
0.0
 23
0.0
 33
0.0
 16
1.0
 26
0.0
 36
0.0
 17
0.0
 27
1.0
 37
0.0
 76
     0
330
1B
  0
MATERIAL
  5
10043
102
{ACAD_REACTORS
330
10041
102
}
330
10041
100
AcDbMaterial
  1
ByBlock
 72
     1
 94
      127
  0
MATERIAL
  5
10042
102
{ACAD_REACTORS
330
10041
102
}
330
10041
100
AcDbMaterial
  1
ByLayer
 72
     1
 94
      127
  0
MATERIAL
  5
10044
102
{ACAD_REACTORS
330
10041
102
}
330
10041
100
AcDbMaterial
  1
Global
 72
     1
 94
      127
  0
MLEADERSTYLE
  5
10048
102
{ACAD_REACTORS
330
10047
102
}
330
10047
100
AcDbMLeaderStyle
179
     2
170
     2
171
     1
172
     0
 90
        2
 40
0.0
 41
0.0
173
     1
 91
-1056964608
340
14
 92
       -2
290
     1
 42
2.0
291
     1
 43
8.0
  3
Standard
341
0
 44
4.0
300

342
11
174
     1
178
     1
175
     1
176
     0
 93
-1056964608
 45
4.0
292
     0
297
     0
 46
4.0
343
0
 94
-1056964608
 47
1.0
 49
1.0
140
1.0
293
     1
141
0.0
294
     1
177
     0
142
1.0
295
     0
296
     0
143
3.75
271
     0
272
     9
273
     9
298
     0
  0
MLINESTYLE
  5
FFFF
102
{ACAD_REACTORS
330
17
102
}
330
17
100
AcDbMlineStyle
  2
Standard
 70
     0
  3

 62
   256
 51
90.0
 52
90.0
 71
     2
 49
0.5
 62
   256
  6
BYLAYER
 49
-0.5
 62
   256
  6
BYLAYER
  0
ACDBPLACEHOLDER
  5
10002
102
{ACAD_REACTORS
330
10001
102
}
330
10001
  0
SCALE
  5
10004
102
{ACAD_REACTORS
330
10003
102
}
330
10003
100
AcDbScale
 70
     0
300
1:1
140
1.0
141
1.0
290
     1
  0
SCALE
  5
10005
102
{ACAD_REACTORS
330
10003
102
}
330
10003
100
AcDbScale
 70
     0
300
1:2
140
1.0
141
2.0
290
     0
  0
SCALE
  5
10006
102
{ACAD_REACTORS
330
10003
102
}
330
10003
100
AcDbScale
 70
     0
300
1:4
140
1.0
141
4.0
290
     0
  0
SCALE
  5
10007
102
{ACAD_REACTORS
330
10003
102
}
330
10003
100
AcDbScale
 70
     0
300
1:5
140
1.0
141
5.0
290
     0
  0
SCALE
  5
10008
102
{ACAD_REACTORS
330
10003
102
}
330
10003
100
AcDbScale
 70
     0
300
1:8
140
1.0
141
8.0
290
     0
  0
SCALE
  5
10009
102
{ACAD_REACTORS
330
10003
102
}
330
10003
100
AcDbScale
 70
     0
300
1:10
140
1.0
141
10.0
290
     0
  0
SCALE
  5
1000A
102
{ACAD_REACTORS
330
10003
102
}
330
10003
100
AcDbScale
 70
     0
300
1:16
140
1.0
141
16.0
290
     0
  0
SCALE
  5
1000B
102
{ACAD_REACTORS
330
10003
102
}
330
10003
100
AcDbScale
 70
     0
300
1:20
140
1.0
141
20.0
290
     0
  0
SCALE
  5
1000C
102
{ACAD_REACTORS
330
10003
102
}
330
10003
100
AcDbScale
 70
     0
300
1:30
140
1.0
141
30.0
290
     0
  0
SCALE
  5
1000D
102
{ACAD_REACTORS
330
10003
102
}
330
10003
100
AcDbScale
 70
     0
300
1:40
140
1.0
141
40.0
290
     0
  0
SCALE
  5
1000E
102
{ACAD_REACTORS
330
10003
102
}
330
10003
100
AcDbScale
 70
     0
300
1:50
140
1.0
141
50.0
290
     0
  0
SCALE
  5
1000F
102
{ACAD_REACTORS
330
10003
102
}
330
10003
100
AcDbScale
 70
     0
300
1:100
140
1.0
141
100.0
290
     0
  0
SCALE
  5
10010
102
{ACAD_REACTORS
330
10003
102
}
330
10003
100
AcDbScale
 70
     0
300
2:1
140
2.0
141
1.0
290
     0
  0
SCALE
  5
10011
102
{ACAD_REACTORS
330
10003
102
}
330
10003
100
AcDbScale
 70
     0
300
4:1
140
4.0
141
1.0
290
     0
  0
SCALE
  5
10012
102
{ACAD_REACTORS
330
10003
102
}
330
10003
100
AcDbScale
 70
     0
300
8:1
140
8.0
141
1.0
290
     0
  0
SCALE
  5
10013
102
{ACAD_REACTORS
330
10003
102
}
330
10003
100
AcDbScale
 70
     0
300
10:1
140
10.0
141
1.0
290
     0
  0
SCALE
  5
10014
102
{ACAD_REACTORS
330
10003
102
}
330
10003
100
AcDbScale
 70
     0
300
100:1
140
100.0
141
1.0
290
     0
  0
SCALE
  5
10015
102
{ACAD_REACTORS
330
10003
102
}
330
10003
100
AcDbScale
 70
     0
300
1/128" = 1'-0"
140
0.0078125
141
12.0
290
     0
  0
SCALE
  5
10016
102
{ACAD_REACTORS
330
10003
102
}
330
10003
100
AcDbScale
 70
     0
300
1/64" = 1'-0"
140
0.015625
141
12.0
290
     0
  0
SCALE
  5
10017
102
{ACAD_REACTORS
330
10003
102
}
330
10003
100
AcDbScale
 70
     0
300
1/32" = 1'-0"
140
0.03125
141
12.0
290
     0
  0
SCALE
  5
10018
102
{ACAD_REACTORS
330
10003
102
}
330
10003
100
AcDbScale
 70
     0
300
1/16" = 1'-0"
140
0.0625
141
12.0
290
     0
  0
SCALE
  5
10019
102
{ACAD_REACTORS
330
10003
102
}
330
10003
100
AcDbScale
 70
     0
300
3/32" = 1'-0"
140
0.09375
141
12.0
290
     0
  0
SCALE
  5
1001A
102
{ACAD_REACTORS
330
10003
102
}
330
10003
100
AcDbScale
 70
     0
300
1/8" = 1'-0"
140
0.125
141
12.0
290
     0
  0
SCALE
  5
1001B
102
{ACAD_REACTORS
330
10003
102
}
330
10003
100
AcDbScale
 70
     0
300
3/16" = 1'-0"
140
0.1875
141
12.0
290
     0
  0
SCALE
  5
1001C
102
{ACAD_REACTORS
330
10003
102
}
330
10003
100
AcDbScale
 70
     0
300
1/4" = 1'-0"
140
0.25
141
12.0
290
     0
  0
SCALE
  5
1001D
102
{ACAD_REACTORS
330
10003
102
}
330
10003
100
AcDbScale
 70
     0
300
3/8" = 1'-0"
140
0.375
141
12.0
290
     0
  0
SCALE
  5
1001E
102
{ACAD_REACTORS
330
10003
102
}
330
10003
100
AcDbScale
 70
     0
300
1/2" = 1'-0"
140
0.5
141
12.0
290
     0
  0
SCALE
  5
1001F
102
{ACAD_REACTORS
330
10003
102
}
330
10003
100
AcDbScale
 70
     0
300
3/4" = 1'-0"
140
0.75
141
12.0
290
     0
  0
SCALE
  5
10020
102
{ACAD_REACTORS
330
10003
102
}
330
10003
100
AcDbScale
 70
     0
300
1" = 1'-0"
140
1.0
141
12.0
290
     0
  0
SCALE
  5
10021
102
{ACAD_REACTORS
330
10003
102
}
330
10003
100
AcDbScale
 70
     0
300
1-1/2" = 1'-0"
140
1.5
141
12.0
290
     0
  0
SCALE
  5
10022
102
{ACAD_REACTORS
330
10003
102
}
330
10003
100
AcDbScale
 70
     0
300
3" = 1'-0"
140
3.0
141
12.0
290
     0
  0
SCALE
  5
10023
102
{ACAD_REACTORS
330
10003
102
}
330
10003
100
AcDbScale
 70
     0
300
6" = 1'-0"
140
6.0
141
12.0
290
     0
  0
SCALE
  5
10024
102
{ACAD_REACTORS
330
10003
102
}
330
10003
100
AcDbScale
 70
     0
300
1'-0" = 1'-0"
140
12.0
141
12.0
290
     0
  0
TABLESTYLE
  5
10046
102
{ACAD_REACTORS
330
10045
102
}
102
{ACAD_XDICTIONARY
360
1004E
102
}
330
10045
100
AcDbTableStyle
  3
Standard
 70
     0
 71
     0
 40
0.06
 41
0.06
280
     0
281
     0
  7
STANDARD
140
4.5
170
     2
 62
     0
 63
   257
283
     0
 90
        4
 91
        0
  1

274
    -2
284
     1
 64
     0
275
    -2
285
     1
 65
     0
276
    -2
286
     1
 66
     0
277
    -2
287
     1
 67
     0
278
    -2
288
     1
 68
     0
279
    -2
289
     1
 69
     0
  7
STANDARD
140
6.0
170
     5
 62
     0
 63
   257
283
     0
 90
        4
 91
        0
  1

274
    -2
284
     1
 64
     0
275
    -2
285
     1
 65
     0
276
    -2
286
     1
 66
     0
277
    -2
287
     1
 67
     0
278
    -2
288
     1
 68
     0
279
    -2
289
     1
 69
     0
  7
STANDARD
140
4.5
170
     5
 62
     0
 63
   257
283
     0
 90
        4
 91
        0
  1

274
    -2
284
     1
 64
     0
275
    -2
285
     1
 65
     0
276
    -2
286
     1
 66
     0
277
    -2
287
     1
 67
     0
278
    -2
288
     1
 68
     0
279
    -2
289
     1
 69
     0
  0
VISUALSTYLE
  5
1002D
102
{ACAD_REACTORS
330
10028
102
}
330
10028
100
AcDbVisualStyle
  2
2dWireframe
 70
     4
177
     3
291
     0
 70
    58
 90
        0
176
     1
 90
        2
176
     1
 90
        0
176
     1
 90
        0
176
     1
 40
0.6
176
     1
 40
30.0
176
     1
 62
     7
420
 16777215
176
     1
 90
        1
176
     1
 90
        4
176
     1
 62
     7
176
     1
 62
   257
176
     1
 90
        1
176
     1
 90
        1
176
     1
 40
1.0
176
     1
 90
        0
176
     1
 62
   257
176
     1
 40
1.0
176
     1
 90
        1
176
     1
 90
        6
176
     1
 90
        2
176
     1
 62
     7
176
     1
 90
        5
176
     1
 90
        0
176
     1
 90
        0
176
     1
290
     0
176
     1
 90
        1
176
     1
 40
0.0
176
     1
 90
        0
176
     1
290
     1
176
     1
290
     1
176
     1
290
     0
176
     1
290
     0
176
     1
290
     0
176
     1
290
     0
176
     1
290
     0
176
     1
290
     0
176
     1
290
     0
176
     1
 90
       50
176
     1
 40
0.0
176
     1
 40
1.0
176
     1
 90
        0
176
     1
 62
   178
420
        0
176
     1
 90
       50
176
     1
 90
        3
176
     1
 62
     5
420
      255
176
     1
290
     0
176
     1
 90
       50
176
     1
 90
       50
176
     1
 90
       50
176
     1
290
     0
176
     1
 90
       50
176
     1
 62
   256
176
     0
 40
1.0
176
     0
 90
        2
176
     1
  1
strokes_ogs.tif
176
     1
290
     0
176
     1
 40
1.0
176
     1
 40
1.0
176
     1
  0
VISUALSTYLE
  5
10030
102
{ACAD_REACTORS
330
10028
102
}
330
10028
100
AcDbVisualStyle
  2
Basic
 70
     7
177
     3
291
     1
 70
    58
 90
        1
176
     1
 90
        0
176
     1
 90
        1
176
     1
 90
        0
176
     1
 40
0.6
176
     1
 40
30.0
176
     1
 62
     7
420
 16777215
176
     1
 90
        0
176
     1
 90
        4
176
     1
 62
     7
176
     1
 62
   257
176
     1
 90
        1
176
     1
 90
        1
176
     1
 40
1.0
176
     1
 90
        8
176
     1
 62
     7
176
     1
 40
1.0
176
     1
 90
        1
176
     1
 90
        6
176
     1
 90
        2
176
     1
 62
     7
176
     1
 90
        5
176
     1
 90
        0
176
     1
 90
        0
176
     1
290
     0
176
     1
 90
        1
176
     1
 40
0.0
176
     1
 90
        0
176
     1
290
     0
176
     1
290
     1
176
     1
290
     1
176
     1
290
     0
176
     1
290
     0
176
     1
290
     0
176
     1
290
     0
176
     1
290
     0
176
     1
290
     0
176
     1
 90
       50
176
     1
 40
0.0
176
     1
 40
1.0
176
     1
 90
        0
176
     1
 62
   178
420
        0
176
     1
 90
       50
176
     1
 90
        3
176
     1
 62
     5
420
      255
176
     1
290
     0
176
     1
 90
       50
176
     1
 90
       50
176
     1
 90
       50
176
     1
290
     0
176
     1
 90
       50
176
     1
 62
   256
176
     0
 40
1.0
176
     0
 90
        2
176
     1
  1
strokes_ogs.tif
176
     1
290
     0
176
     1
 40
1.0
176
     1
 40
1.0
176
     1
  0
VISUALSTYLE
  5
10034
102
{ACAD_REACTORS
330
10028
102
}
330
10028
100
AcDbVisualStyle
  2
Brighten
 70
    12
177
     3
291
     1
 70
    58
 90
        2
176
     1
 90
        2
176
     1
 90
        0
176
     1
 90
        0
176
     1
 40
0.6
176
     1
 40
30.0
176
     1
 62
     7
420
 16777215
176
     1
 90
        1
176
     1
 90
        4
176
     1
 62
     7
176
     1
 62
   257
176
     1
 90
        1
176
     1
 90
        1
176
     1
 40
1.0
176
     1
 90
        8
176
     1
 62
     7
176
     1
 40
1.0
176
     1
 90
        1
176
     1
 90
        6
176
     1
 90
        2
176
     1
 62
     7
176
     1
 90
        5
176
     1
 90
        0
176
     1
 90
        0
176
     1
290
     0
176
     1
 90
        1
176
     1
 40
50.0
176
     1
 90
        0
176
     1
290
     0
176
     1
290
     1
176
     1
290
     1
176
     1
290
     0
176
     1
290
     0
176
     1
290
     0
176
     1
290
     0
176
     1
290
     0
176
     1
290
     0
176
     1
 90
       50
176
     1
 40
0.0
176
     1
 40
1.0
176
     1
 90
        0
176
     1
 62
   178
420
        0
176
     1
 90
       50
176
     1
 90
        3
176
     1
 62
     5
420
      255
176
     1
290
     0
176
     1
 90
       50
176
     1
 90
       50
176
     1
 90
       50
176
     1
290
     0
176
     1
 90
       50
176
     1
 62
   256
176
     0
 40
1.0
176
     0
 90
        2
176
     1
  1
strokes_ogs.tif
176
     1
290
     0
176
     1
 40
1.0
176
     1
 40
1.0
176
     1
  0
VISUALSTYLE
  5
10038
102
{ACAD_REACTORS
330
10028
102
}
330
10028
100
AcDbVisualStyle
  2
ColorChange
 70
    16
177
     3
291
     1
 70
    58
 90
        2
176
     1
 90
        2
176
     1
 90
        3
176
     1
 90
        0
176
     1
 40
0.6
176
     1
 40
30.0
176
     1
 62
     8
420
  8421504
176
     1
 90
        1
176
     1
 90
        4
176
     1
 62
     7
176
     1
 62
   257
176
     1
 90
        1
176
     1
 90
        1
176
     1
 40
1.0
176
     1
 90
        8
176
     1
 62
     8
420
  8421504
176
     1
 40
1.0
176
     1
 90
        1
176
     1
 90
        6
176
     1
 90
        2
176
     1
 62
     7
176
     1
 90
        5
176
     1
 90
        0
176
     1
 90
        0
176
     1
290
     0
176
     1
 90
        1
176
     1
 40
0.0
176
     1
 90
        0
176
     1
290
     0
176
     1
290
     1
176
     1
290
     1
176
     1
290
     0
176
     1
290
     0
176
     1
290
     0
176
     1
290
     0
176
     1
290
     0
176
     1
290
     0
176
     1
 90
       50
176
     1
 40
0.0
176
     1
 40
1.0
176
     1
 90
        0
176
     1
 62
   178
420
        0
176
     1
 90
       50
176
     1
 90
        3
176
     1
 62
     5
420
      255
176
     1
290
     0
176
     1
 90
       50
176
     1
 90
       50
176
     1
 90
       50
176
     1
290
     0
176
     1
 90
       50
176
     1
 62
   256
176
     0
 40
1.0
176
     0
 90
        2
176
     1
  1
strokes_ogs.tif
176
     1
290
     0
176
     1
 40
1.0
176
     1
 40
1.0
176
     1
  0
VISUALSTYLE
  5
10032
102
{ACAD_REACTORS
330
10028
102
}
330
10028
100
AcDbVisualStyle
  2
Conceptual
 70
     9
177
     3
291
     0
 70
    58
 90
        3
176
     1
 90
        2
176
     1
 90
        0
176
     1
 90
        0
176
     1
 40
0.6
176
     1
 40
30.0
176
     1
 62
     7
420
 16777215
176
     1
 90
        2
176
     1
 90
        2
176
     1
 62
     7
176
     1
 62
   257
176
     1
 90
        1
176
     1
 90
        1
176
     1
 40
179.0
176
     1
 90
        8
176
     1
 62
     7
176
     1
 40
1.0
176
     1
 90
        1
176
     1
 90
        6
176
     1
 90
        2
176
     1
 62
     7
176
     1
 90
        3
176
     1
 90
        0
176
     1
 90
        0
176
     1
290
     0
176
     1
 90
        1
176
     1
 40
0.0
176
     1
 90
        0
176
     1
290
     0
176
     1
290
     1
176
     1
290
     1
176
     1
290
     0
176
     1
290
     0
176
     1
290
     0
176
     1
290
     0
176
     1
290
     0
176
     1
290
     0
176
     1
 90
       50
176
     1
 40
0.0
176
     1
 40
1.0
176
     1
 90
        0
176
     1
 62
   178
420
        0
176
     1
 90
       50
176
     1
 90
        3
176
     1
 62
     5
420
      255
176
     1
290
     0
176
     1
 90
       50
176
     1
 90
       50
176
     1
 90
       50
176
     1
290
     0
176
     1
 90
       50
176
     1
 62
   256
176
     0
 40
1.0
176
     0
 90
        2
176
     1
  1
strokes_ogs.tif
176
     1
290
     0
176
     1
 40
1.0
176
     1
 40
1.0
176
     1
  0
VISUALSTYLE
  5
10033
102
{ACAD_REACTORS
330
10028
102
}
330
10028
100
AcDbVisualStyle
  2
Dim
 70
    11
177
     3
291
     1
 70
    58
 90
        2
176
     1
 90
        2
176
     1
 90
        0
176
     1
 90
        0
176
     1
 40
0.6
176
     1
 40
30.0
176
     1
 62
     7
420
 16777215
176
     1
 90
        1
176
     1
 90
        4
176
     1
 62
     7
176
     1
 62
   257
176
     1
 90
        1
176
     1
 90
        1
176
     1
 40
1.0
176
     1
 90
        8
176
     1
 62
     7
176
     1
 40
1.0
176
     1
 90
        1
176
     1
 90
        6
176
     1
 90
        2
176
     1
 62
     7
176
     1
 90
        5
176
     1
 90
        0
176
     1
 90
        0
176
     1
290
     0
176
     1
 90
        1
176
     1
 40
-50.0
176
     1
 90
        0
176
     1
290
     0
176
     1
290
     1
176
     1
290
     1
176
     1
290
     0
176
     1
290
     0
176
     1
290
     0
176
     1
290
     0
176
     1
290
     0
176
     1
290
     0
176
     1
 90
       50
176
     1
 40
0.0
176
     1
 40
1.0
176
     1
 90
        0
176
     1
 62
   178
420
        0
176
     1
 90
       50
176
     1
 90
        3
176
     1
 62
     5
420
      255
176
     1
290
     0
176
     1
 90
       50
176
     1
 90
       50
176
     1
 90
       50
176
     1
290
     0
176
     1
 90
       50
176
     1
 62
   256
176
     0
 40
1.0
176
     0
 90
        2
176
     1
  1
strokes_ogs.tif
176
     1
290
     0
176
     1
 40
1.0
176
     1
 40
1.0
176
     1
  0
VISUALSTYLE
  5
1003B
102
{ACAD_REACTORS
330
10028
102
}
330
10028
100
AcDbVisualStyle
  2
EdgeColorOff
 70
    22
177
     3
291
     1
 70
    58
 90
        2
176
     0
 90
        2
176
     0
 90
        0
176
     0
 90
        0
176
     0
 40
0.6
176
     0
 40
30.0
176
     0
 62
     7
420
 16777215
176
     0
 90
        1
176
     0
 90
        4
176
     0
 62
     7
176
     0
 62
   257
176
     0
 90
        1
176
     0
 90
        1
176
     0
 40
1.0
176
     0
 90
        8
176
     2
 62
     7
176
     0
 40
1.0
176
     0
 90
        1
176
     0
 90
        6
176
     0
 90
        2
176
     0
 62
     7
176
     0
 90
        5
176
     0
 90
        0
176
     0
 90
        0
176
     0
290
     0
176
     0
 90
        1
176
     0
 40
0.0
176
     0
 90
        0
176
     0
290
     0
176
     0
290
     1
176
     0
290
     1
176
     0
290
     0
176
     0
290
     0
176
     0
290
     0
176
     0
290
     0
176
     0
290
     0
176
     0
290
     0
176
     0
 90
       50
176
     0
 40
0.0
176
     0
 40
1.0
176
     0
 90
        0
176
     0
 62
   178
420
        0
176
     0
 90
       50
176
     0
 90
        3
176
     0
 62
     5
420
      255
176
     0
290
     0
176
     0
 90
       50
176
     0
 90
       50
176
     0
 90
       50
176
     0
290
     0
176
     0
 90
       50
176
     0
 62
   256
176
     0
 40
1.0
176
     0
 90
        2
176
     0
  1
strokes_ogs.tif
176
     0
290
     0
176
     0
 40
1.0
176
     0
 40
1.0
176
     0
  0
VISUALSTYLE
  5
10037
102
{ACAD_REACTORS
330
10028
102
}
330
10028
100
AcDbVisualStyle
  2
Facepattern
 70
    15
177
     3
291
     1
 70
    58
 90
        2
176
     1
 90
        2
176
     1
 90
        0
176
     1
 90
        0
176
     1
 40
0.6
176
     1
 40
30.0
176
     1
 62
     7
420
 16777215
176
     1
 90
        1
176
     1
 90
        4
176
     1
 62
     7
176
     1
 62
   257
176
     1
 90
        1
176
     1
 90
        1
176
     1
 40
1.0
176
     1
 90
        8
176
     1
 62
     7
176
     1
 40
1.0
176
     1
 90
        1
176
     1
 90
        6
176
     1
 90
        2
176
     1
 62
     7
176
     1
 90
        5
176
     1
 90
        0
176
     1
 90
        0
176
     1
290
     0
176
     1
 90
        1
176
     1
 40
0.0
176
     1
 90
        0
176
     1
290
     0
176
     1
290
     1
176
     1
290
     1
176
     1
290
     0
176
     1
290
     0
176
     1
290
     0
176
     1
290
     0
176
     1
290
     0
176
     1
290
     0
176
     1
 90
       50
176
     1
 40
0.0
176
     1
 40
1.0
176
     1
 90
        0
176
     1
 62
   178
420
        0
176
     1
 90
       50
176
     1
 90
        3
176
     1
 62
     5
420
      255
176
     1
290
     0
176
     1
 90
       50
176
     1
 90
       50
176
     1
 90
       50
176
     1
290
     0
176
     1
 90
       50
176
     1
 62
   256
176
     0
 40
1.0
176
     0
 90
        2
176
     1
  1
strokes_ogs.tif
176
     1
290
     0
176
     1
 40
1.0
176
     1
 40
1.0
176
     1
  0
VISUALSTYLE
  5
10029
102
{ACAD_REACTORS
330
10028
102
}
330
10028
100
AcDbVisualStyle
  2
Flat
 70
     0
177
     3
291
     1
 70
    58
 90
        2
176
     1
 90
        1
176
     1
 90
        1
176
     1
 90
        2
176
     1
 40
0.6
176
     1
 40
30.0
176
     1
 62
     7
420
 16777215
176
     1
 90
        0
176
     1
 90
        0
176
     1
 62
     7
176
     1
 62
   257
176
     1
 90
        1
176
     1
 90
        1
176
     1
 40
1.0
176
     1
 90
        8
176
     1
 62
     7
176
     1
 40
1.0
176
     1
 90
        1
176
     1
 90
        6
176
     1
 90
        2
176
     1
 62
     7
176
     1
 90
        5
176
     1
 90
        0
176
     1
 90
        0
176
     1
290
     0
176
     1
 90
       13
176
     1
 40
0.0
176
     1
 90
        0
176
     1
290
     0
176
     1
290
     1
176
     1
290
     1
176
     1
290
     0
176
     1
290
     0
176
     1
290
     0
176
     1
290
     0
176
     1
290
     0
176
     1
290
     0
176
     1
 90
       50
176
     1
 40
0.0
176
     1
 40
1.0
176
     1
 90
        0
176
     1
 62
   178
420
        0
176
     1
 90
       50
176
     1
 90
        3
176
     1
 62
     5
420
      255
176
     1
290
     0
176
     1
 90
       50
176
     1
 90
       50
176
     1
 90
       50
176
     1
290
     0
176
     1
 90
       50
176
     1
 62
   256
176
     0
 40
1.0
176
     0
 90
        2
176
     1
  1
strokes_ogs.tif
176
     1
290
     0
176
     1
 40
1.0
176
     1
 40
1.0
176
     1
  0
VISUALSTYLE
  5
1002A
102
{ACAD_REACTORS
330
10028
102
}
330
10028
100
AcDbVisualStyle
  2
FlatWithEdges
 70
     1
177
     3
291
     1
 70
    58
 90
        2
176
     1
 90
        1
176
     1
 90
        1
176
     1
 90
        2
176
     1
 40
0.6
176
     1
 40
30.0
176
     1
 62
     7
420
 16777215
176
     1
 90
        1
176
     1
 90
        0
176
     1
 62
     7
176
     1
 62
   257
176
     1
 90
        1
176
     1
 90
        1
176
     1
 40
1.0
176
     1
 90
        0
176
     1
 62
   257
176
     1
 40
1.0
176
     1
 90
        1
176
     1
 90
        6
176
     1
 90
        2
176
     1
 62
     7
176
     1
 90
        5
176
     1
 90
        0
176
     1
 90
        0
176
     1
290
     0
176
     1
 90
       13
176
     1
 40
0.0
176
     1
 90
        0
176
     1
290
     0
176
     1
290
     1
176
     1
290
     1
176
     1
290
     0
176
     1
290
     0
176
     1
290
     0
176
     1
290
     0
176
     1
290
     0
176
     1
290
     0
176
     1
 90
       50
176
     1
 40
0.0
176
     1
 40
1.0
176
     1
 90
        0
176
     1
 62
   178
420
        0
176
     1
 90
       50
176
     1
 90
        3
176
     1
 62
     5
420
      255
176
     1
290
     0
176
     1
 90
       50
176
     1
 90
       50
176
     1
 90
       50
176
     1
290
     0
176
     1
 90
       50
176
     1
 62
   256
176
     0
 40
1.0
176
     0
 90
        2
176
     1
  1
strokes_ogs.tif
176
     1
290
     0
176
     1
 40
1.0
176
     1
 40
1.0
176
     1
  0
VISUALSTYLE
  5
1002B
102
{ACAD_REACTORS
330
10028
102
}
330
10028
100
AcDbVisualStyle
  2
Gouraud
 70
     2
177
     3
291
     1
 70
    58
 90
        2
176
     1
 90
        2
176
     1
 90
        1
176
     1
 90
        2
176
     1
 40
0.6
176
     1
 40
30.0
176
     1
 62
     7
420
 16777215
176
     1
 90
        0
176
     1
 90
        0
176
     1
 62
     7
176
     1
 62
   257
176
     1
 90
        1
176
     1
 90
        1
176
     1
 40
1.0
176
     1
 90
        0
176
     1
 62
     7
176
     1
 40
1.0
176
     1
 90
        1
176
     1
 90
        6
176
     1
 90
        2
176
     1
 62
     7
176
     1
 90
        5
176
     1
 90
        0
176
     1
 90
        0
176
     1
290
     0
176
     1
 90
       13
176
     1
 40
0.0
176
     1
 90
        0
176
     1
290
     0
176
     1
290
     1
176
     1
290
     1
176
     1
290
     0
176
     1
290
     0
176
     1
290
     0
176
     1
290
     0
176
     1
290
     0
176
     1
290
     0
176
     1
 90
       50
176
     1
 40
0.0
176
     1
 40
1.0
176
     1
 90
        0
176
     1
 62
   178
420
        0
176
     1
 90
       50
176
     1
 90
        3
176
     1
 62
     5
420
      255
176
     1
290
     0
176
     1
 90
       50
176
     1
 90
       50
176
     1
 90
       50
176
     1
290
     0
176
     1
 90
       50
176
     1
 62
   256
176
     0
 40
1.0
176
     0
 90
        2
176
     1
  1
strokes_ogs.tif
176
     1
290
     0
176
     1
 40
1.0
176
     1
 40
1.0
176
     1
  0
VISUALSTYLE
  5
1002C
102
{ACAD_REACTORS
330
10028
102
}
330
10028
100
AcDbVisualStyle
  2
GouraudWithEdges
 70
     3
177
     3
291
     1
 70
    58
 90
        2
176
     1
 90
        2
176
     1
 90
        1
176
     1
 90
        2
176
     1
 40
0.6
176
     1
 40
30.0
176
     1
 62
     7
420
 16777215
176
     1
 90
        1
176
     1
 90
        0
176
     1
 62
     7
176
     1
 62
   257
176
     1
 90
        1
176
     1
 90
        1
176
     1
 40
1.0
176
     1
 90
        0
176
     1
 62
   257
176
     1
 40
1.0
176
     1
 90
        1
176
     1
 90
        6
176
     1
 90
        2
176
     1
 62
     7
176
     1
 90
        5
176
     1
 90
        0
176
     1
 90
        0
176
     1
290
     0
176
     1
 90
       13
176
     1
 40
0.0
176
     1
 90
        0
176
     1
290
     0
176
     1
290
     1
176
     1
290
     1
176
     1
290
     0
176
     1
290
     0
176
     1
290
     0
176
     1
290
     0
176
     1
290
     0
176
     1
290
     0
176
     1
 90
       50
176
     1
 40
0.0
176
     1
 40
1.0
176
     1
 90
        0
176
     1
 62
   178
420
        0
176
     1
 90
       50
176
     1
 90
        3
176
     1
 62
     5
420
      255
176
     1
290
     0
176
     1
 90
       50
176
     1
 90
       50
176
     1
 90
       50
176
     1
290
     0
176
     1
 90
       50
176
     1
 62
   256
176
     0
 40
1.0
176
     0
 90
        2
176
     1
  1
strokes_ogs.tif
176
     1
290
     0
176
     1
 40
1.0
176
     1
 40
1.0
176
     1
  0
VISUALSTYLE
  5
1002F
102
{ACAD_REACTORS
330
10028
102
}
330
10028
100
AcDbVisualStyle
  2
Hidden
 70
     6
177
     3
291
     0
 70
    58
 90
        1
176
     1
 90
        2
176
     1
 90
        2
176
     1
 90
        0
176
     1
 40
0.6
176
     1
 40
30.0
176
     1
 62
     7
420
 16777215
176
     1
 90
        2
176
     1
 90
        2
176
     1
 62
     7
176
     1
 62
   257
176
     1
 90
        2
176
     1
 90
        1
176
     1
 40
40.0
176
     1
 90
        0
176
     1
 62
   257
176
     1
 40
1.0
176
     1
 90
        1
176
     1
 90
        6
176
     1
 90
        2
176
     1
 62
     7
176
     1
 90
        3
176
     1
 90
        0
176
     1
 90
        0
176
     1
290
     0
176
     1
 90
        1
176
     1
 40
0.0
176
     1
 90
        0
176
     1
290
     0
176
     1
290
     1
176
     1
290
     1
176
     1
290
     0
176
     1
290
     0
176
     1
290
     0
176
     1
290
     0
176
     1
290
     0
176
     1
290
     0
176
     1
 90
       50
176
     1
 40
0.0
176
     1
 40
1.0
176
     1
 90
        0
176
     1
 62
   178
420
        0
176
     1
 90
       50
176
     1
 90
        3
176
     1
 62
     5
420
      255
176
     1
290
     0
176
     1
 90
       50
176
     1
 90
       50
176
     1
 90
       50
176
     1
290
     0
176
     1
 90
       50
176
     1
 62
   256
176
     0
 40
1.0
176
     0
 90
        2
176
     1
  1
strokes_ogs.tif
176
     1
290
     0
176
     1
 40
1.0
176
     1
 40
1.0
176
     1
  0
VISUALSTYLE
  5
10039
102
{ACAD_REACTORS
330
10028
102
}
330
10028
100
AcDbVisualStyle
  2
JitterOff
 70
    20
177
     3
291
     1
 70
    58
 90
        2
176
     0
 90
        2
176
     0
 90
        0
176
     0
 90
        0
176
     0
 40
0.6
176
     0
 40
30.0
176
     0
 62
     7
420
 16777215
176
     0
 90
        1
176
     0
 90
        4
176
     0
 62
     7
176
     0
 62
   257
176
     0
 90
        1
176
     0
 90
        1
176
     0
 40
1.0
176
     0
 90
       10
176
     2
 62
     7
176
     0
 40
1.0
176
     0
 90
        1
176
     0
 90
        6
176
     0
 90
        2
176
     0
 62
     7
176
     0
 90
        5
176
     0
 90
        0
176
     0
 90
        0
176
     0
290
     0
176
     0
 90
        1
176
     0
 40
0.0
176
     0
 90
        0
176
     0
290
     0
176
     0
290
     1
176
     0
290
     1
176
     0
290
     0
176
     0
290
     0
176
     0
290
     0
176
     0
290
     0
176
     0
290
     0
176
     0
290
     0
176
     0
 90
       50
176
     0
 40
0.0
176
     0
 40
1.0
176
     0
 90
        0
176
     0
 62
   178
420
        0
176
     0
 90
       50
176
     0
 90
        3
176
     0
 62
     5
420
      255
176
     0
290
     0
176
     0
 90
       50
176
     0
 90
       50
176
     0
 90
       50
176
     0
290
     0
176
     0
 90
       50
176
     0
 62
   256
176
     0
 40
1.0
176
     0
 90
        2
176
     0
  1
strokes_ogs.tif
176
     0
290
     0
176
     0
 40
1.0
176
     0
 40
1.0
176
     0
  0
VISUALSTYLE
  5
10036
102
{ACAD_REACTORS
330
10028
102
}
330
10028
100
AcDbVisualStyle
  2
Linepattern
 70
    14
177
     3
291
     1
 70
    58
 90
        2
176
     1
 90
        2
176
     1
 90
        0
176
     1
 90
        0
176
     1
 40
0.6
176
     1
 40
30.0
176
     1
 62
     7
420
 16777215
176
     1
 90
        1
176
     1
 90
        4
176
     1
 62
     7
176
     1
 62
   257
176
     1
 90
        7
176
     1
 90
        7
176
     1
 40
1.0
176
     1
 90
        8
176
     1
 62
     7
176
     1
 40
1.0
176
     1
 90
        1
176
     1
 90
        6
176
     1
 90
        2
176
     1
 62
     7
176
     1
 90
        5
176
     1
 90
        0
176
     1
 90
        0
176
     1
290
     0
176
     1
 90
        1
176
     1
 40
0.0
176
     1
 90
        0
176
     1
290
     0
176
     1
290
     1
176
     1
290
     1
176
     1
290
     0
176
     1
290
     0
176
     1
290
     0
176
     1
290
     0
176
     1
290
     0
176
     1
290
     0
176
     1
 90
       50
176
     1
 40
0.0
176
     1
 40
1.0
176
     1
 90
        0
176
     1
 62
   178
420
        0
176
     1
 90
       50
176
     1
 90
        3
176
     1
 62
     5
420
      255
176
     1
290
     0
176
     1
 90
       50
176
     1
 90
       50
176
     1
 90
       50
176
     1
290
     0
176
     1
 90
       50
176
     1
 62
   256
176
     0
 40
1.0
176
     0
 90
        2
176
     1
  1
strokes_ogs.tif
176
     1
290
     0
176
     1
 40
1.0
176
     1
 40
1.0
176
     1
  0
VISUALSTYLE
  5
1003A
102
{ACAD_REACTORS
330
10028
102
}
330
10028
100
AcDbVisualStyle
  2
OverhangOff
 70
    21
177
     3
291
     1
 70
    58
 90
        2
176
     0
 90
        2
176
     0
 90
        0
176
     0
 90
        0
176
     0
 40
0.6
176
     0
 40
30.0
176
     0
 62
     7
420
 16777215
176
     0
 90
        1
176
     0
 90
        4
176
     0
 62
     7
176
     0
 62
   257
176
     0
 90
        1
176
     0
 90
        1
176
     0
 40
1.0
176
     0
 90
        9
176
     2
 62
     7
176
     0
 40
1.0
176
     0
 90
        1
176
     0
 90
        6
176
     0
 90
        2
176
     0
 62
     7
176
     0
 90
        5
176
     0
 90
        0
176
     0
 90
        0
176
     0
290
     0
176
     0
 90
        1
176
     0
 40
0.0
176
     0
 90
        0
176
     0
290
     0
176
     0
290
     1
176
     0
290
     1
176
     0
290
     0
176
     0
290
     0
176
     0
290
     0
176
     0
290
     0
176
     0
290
     0
176
     0
290
     0
176
     0
 90
       50
176
     0
 40
0.0
176
     0
 40
1.0
176
     0
 90
        0
176
     0
 62
   178
420
        0
176
     0
 90
       50
176
     0
 90
        3
176
     0
 62
     5
420
      255
176
     0
290
     0
176
     0
 90
       50
176
     0
 90
       50
176
     0
 90
       50
176
     0
290
     0
176
     0
 90
       50
176
     0
 62
   256
176
     0
 40
1.0
176
     0
 90
        2
176
     0
  1
strokes_ogs.tif
176
     0
290
     0
176
     0
 40
1.0
176
     0
 40
1.0
176
     0
  0
VISUALSTYLE
  5
10031
102
{ACAD_REACTORS
330
10028
102
}
330
10028
100
AcDbVisualStyle
  2
Realistic
 70
     8
177
     3
291
     0
 70
    58
 90
        2
176
     1
 90
        3
176
     1
 90
        0
176
     1
 90
        2
176
     1
 40
0.6
176
     1
 40
30.0
176
     1
 62
     7
420
 16777215
176
     1
 90
        0
176
     1
 90
        0
176
     1
 62
     7
176
     1
 62
   257
176
     1
 90
        1
176
     1
 90
        1
176
     1
 40
1.0
176
     1
 90
        8
176
     1
 62
   257
176
     1
 40
1.0
176
     1
 90
        1
176
     1
 90
        6
176
     1
 90
        2
176
     1
 62
     7
176
     1
 90
        3
176
     1
 90
        0
176
     1
 90
        0
176
     1
290
     0
176
     1
 90
       13
176
     1
 40
0.0
176
     1
 90
        0
176
     1
290
     0
176
     1
290
     1
176
     1
290
     1
176
     1
290
     0
176
     1
290
     0
176
     1
290
     0
176
     1
290
     0
176
     1
290
     0
176
     1
290
     0
176
     1
 90
       50
176
     1
 40
0.0
176
     1
 40
1.0
176
     1
 90
        0
176
     1
 62
   178
420
        0
176
     1
 90
       50
176
     1
 90
        3
176
     1
 62
     5
420
      255
176
     1
290
     0
176
     1
 90
       50
176
     1
 90
       50
176
     1
 90
       50
176
     1
290
     0
176
     1
 90
       50
176
     1
 62
   256
176
     0
 40
1.0
176
     0
 90
        2
176
     1
  1
strokes_ogs.tif
176
     1
290
     0
176
     1
 40
1.0
176
     1
 40
1.0
176
     1
  0
VISUALSTYLE
  5
10040
102
{ACAD_REACTORS
330
10028
102
}
330
10028
100
AcDbVisualStyle
  2
Shaded
 70
    27
177
     3
291
     0
 70
    58
 90
        2
176
     1
 90
        2
176
     1
 90
        1
176
     1
 90
        2
176
     1
 40
0.6
176
     1
 40
30.0
176
     1
 62
     7
420
 16777215
176
     1
 90
        0
176
     1
 90
        4
176
     1
 62
     7
176
     1
 62
   257
176
     1
 90
        1
176
     1
 90
        1
176
     1
 40
1.0
176
     1
 90
        8
176
     1
 62
   257
176
     1
 40
1.0
176
     1
 90
        1
176
     1
 90
        6
176
     1
 90
        2
176
     1
 62
     8
420
  7895160
176
     1
 90
        3
176
     1
 90
        0
176
     1
 90
        0
176
     1
290
     0
176
     1
 90
        5
176
     1
 40
0.0
176
     1
 90
        0
176
     1
290
     0
176
     1
290
     1
176
     1
290
     1
176
     1
290
     0
176
     1
290
     0
176
     1
290
     0
176
     1
290
     0
176
     1
290
     0
176
     1
290
     0
176
     1
 90
       50
176
     1
 40
0.0
176
     1
 40
1.0
176
     1
 90
        0
176
     1
 62
   178
420
        0
176
     1
 90
       50
176
     1
 90
        3
176
     1
 62
     5
420
      255
176
     1
290
     0
176
     1
 90
       50
176
     1
 90
       50
176
     1
 90
       50
176
     1
290
     0
176
     1
 90
       50
176
     1
 62
   256
176
     0
 40
1.0
176
     0
 90
        2
176
     1
  1
strokes_ogs.tif
176
     1
290
     0
176
     1
 40
1.0
176
     1
 40
1.0
176
     1
  0
VISUALSTYLE
  5
1003F
102
{ACAD_REACTORS
330
10028
102
}
330
10028
100
AcDbVisualStyle
  2
Shaded with edges
 70
    26
177
     3
291
     0
 70
    58
 90
        2
176
     1
 90
        2
176
     1
 90
        1
176
     1
 90
        2
176
     1
 40
0.6
176
     1
 40
30.0
176
     1
 62
     7
420
 16777215
176
     1
 90
        1
176
     1
 90
       10
176
     1
 62
     7
176
     1
 62
   257
176
     1
 90
        2
176
     1
 90
        1
176
     1
 40
1.0
176
     1
 90
        8
176
     1
 62
   257
176
     1
 40
1.0
176
     1
 90
        1
176
     1
 90
        6
176
     1
 90
        2
176
     1
 62
     7
176
     1
 90
        3
176
     1
 90
        0
176
     1
 90
        0
176
     1
290
     0
176
     1
 90
        5
176
     1
 40
0.0
176
     1
 90
        0
176
     1
290
     0
176
     1
290
     1
176
     1
290
     1
176
     1
290
     0
176
     1
290
     0
176
     1
290
     0
176
     1
290
     0
176
     1
290
     0
176
     1
290
     0
176
     1
 90
       50
176
     1
 40
0.0
176
     1
 40
1.0
176
     1
 90
        0
176
     1
 62
   178
420
        0
176
     1
 90
       50
176
     1
 90
        3
176
     1
 62
     5
420
      255
176
     1
290
     0
176
     1
 90
       50
176
     1
 90
       50
176
     1
 90
       50
176
     1
290
     0
176
     1
 90
       50
176
     1
 62
   256
176
     0
 40
1.0
176
     0
 90
        2
176
     1
  1
strokes_ogs.tif
176
     1
290
     0
176
     1
 40
1.0
176
     1
 40
1.0
176
     1
  0
VISUALSTYLE
  5
1003C
102
{ACAD_REACTORS
330
10028
102
}
330
10028
100
AcDbVisualStyle
  2
Shades of Gray
 70
    23
177
     3
291
     0
 70
    58
 90
        2
176
     1
 90
        2
176
     1
 90
        3
176
     1
 90
        0
176
     1
 40
0.6
176
     1
 40
30.0
176
     1
 62
     7
420
 16777215
176
     1
 90
        2
176
     1
 90
        2
176
     1
 62
     7
176
     1
 62
     7
176
     1
 90
        1
176
     1
 90
        1
176
     1
 40
40.0
176
     1
 90
        8
176
     1
 62
     7
176
     1
 40
1.0
176
     1
 90
        1
176
     1
 90
        6
176
     1
 90
        2
176
     1
 62
     7
176
     1
 90
        3
176
     1
 90
        0
176
     1
 90
        0
176
     1
290
     0
176
     1
 90
        1
176
     1
 40
0.0
176
     1
 90
        0
176
     1
290
     0
176
     1
290
     1
176
     1
290
     1
176
     1
290
     0
176
     1
290
     0
176
     1
290
     0
176
     1
290
     0
176
     1
290
     0
176
     1
290
     0
176
     1
 90
       50
176
     1
 40
0.0
176
     1
 40
1.0
176
     1
 90
        0
176
     1
 62
   178
420
        0
176
     1
 90
       50
176
     1
 90
        3
176
     1
 62
     5
420
      255
176
     1
290
     0
176
     1
 90
       50
176
     1
 90
       50
176
     1
 90
       50
176
     1
290
     0
176
     1
 90
       50
176
     1
 62
   256
176
     0
 40
1.0
176
     0
 90
        2
176
     1
  1
strokes_ogs.tif
176
     1
290
     0
176
     1
 40
1.0
176
     1
 40
1.0
176
     1
  0
VISUALSTYLE
  5
1003D
102
{ACAD_REACTORS
330
10028
102
}
330
10028
100
AcDbVisualStyle
  2
Sketchy
 70
    24
177
     3
291
     0
 70
    58
 90
        1
176
     1
 90
        2
176
     1
 90
        2
176
     1
 90
        0
176
     1
 40
0.6
176
     1
 40
30.0
176
     1
 62
     7
420
 16777215
176
     1
 90
        2
176
     1
 90
        2
176
     1
 62
     7
176
     1
 62
     7
176
     1
 90
        1
176
     1
 90
        1
176
     1
 40
40.0
176
     1
 90
       11
176
     1
 62
     7
176
     1
 40
1.0
176
     1
 90
        1
176
     1
 90
        6
176
     1
 90
        2
176
     1
 62
     7
176
     1
 90
        6
176
     1
 90
        0
176
     1
 90
        0
176
     1
290
     0
176
     1
 90
        1
176
     1
 40
0.0
176
     1
 90
        0
176
     1
290
     0
176
     1
290
     1
176
     1
290
     1
176
     1
290
     0
176
     1
290
     0
176
     1
290
     0
176
     1
290
     0
176
     1
290
     0
176
     1
290
     0
176
     1
 90
       50
176
     1
 40
0.0
176
     1
 40
1.0
176
     1
 90
        0
176
     1
 62
   178
420
        0
176
     1
 90
       50
176
     1
 90
        3
176
     1
 62
     5
420
      255
176
     1
290
     0
176
     1
 90
       50
176
     1
 90
       50
176
     1
 90
       50
176
     1
290
     0
176
     1
 90
       50
176
     1
 62
   256
176
     0
 40
1.0
176
     0
 90
        2
176
     1
  1
strokes_ogs.tif
176
     1
290
     0
176
     1
 40
1.0
176
     1
 40
1.0
176
     1
  0
VISUALSTYLE
  5
10035
102
{ACAD_REACTORS
330
10028
102
}
330
10028
100
AcDbVisualStyle
  2
Thicken
 70
    13
177
     3
291
     1
 70
    58
 90
        2
176
     1
 90
        2
176
     1
 90
        0
176
     1
 90
        0
176
     1
 40
0.6
176
     1
 40
30.0
176
     1
 62
     7
420
 16777215
176
     1
 90
        1
176
     1
 90
        4
176
     1
 62
     7
176
     1
 62
   257
176
     1
 90
        1
176
     1
 90
        1
176
     1
 40
1.0
176
     1
 90
       12
176
     1
 62
     7
176
     1
 40
1.0
176
     1
 90
        1
176
     1
 90
        6
176
     1
 90
        2
176
     1
 62
     7
176
     1
 90
        5
176
     1
 90
        0
176
     1
 90
        0
176
     1
290
     0
176
     1
 90
        1
176
     1
 40
0.0
176
     1
 90
        0
176
     1
290
     0
176
     1
290
     1
176
     1
290
     1
176
     1
290
     0
176
     1
290
     0
176
     1
290
     0
176
     1
290
     0
176
     1
290
     0
176
     1
290
     0
176
     1
 90
       50
176
     1
 40
0.0
176
     1
 40
1.0
176
     1
 90
        0
176
     1
 62
   178
420
        0
176
     1
 90
       50
176
     1
 90
        3
176
     1
 62
     5
420
      255
176
     1
290
     0
176
     1
 90
       50
176
     1
 90
       50
176
     1
 90
       50
176
     1
290
     0
176
     1
 90
       50
176
     1
 62
   256
176
     0
 40
1.0
176
     0
 90
        2
176
     1
  1
strokes_ogs.tif
176
     1
290
     0
176
     1
 40
1.0
176
     1
 40
1.0
176
     1
  0
VISUALSTYLE
  5
1002E
102
{ACAD_REACTORS
330
10028
102
}
330
10028
100
AcDbVisualStyle
  2
Wireframe
 70
     5
177
     3
291
     0
 70
    58
 90
        0
176
     1
 90
        2
176
     1
 90
        0
176
     1
 90
        0
176
     1
 40
0.6
176
     1
 40
30.0
176
     1
 62
     7
420
 16777215
176
     1
 90
        1
176
     1
 90
        4
176
     1
 62
     7
176
     1
 62
   257
176
     1
 90
        1
176
     1
 90
        1
176
     1
 40
1.0
176
     1
 90
        0
176
     1
 62
   257
176
     1
 40
1.0
176
     1
 90
        1
176
     1
 90
        6
176
     1
 90
        2
176
     1
 62
     7
176
     1
 90
        3
176
     1
 90
        0
176
     1
 90
        0
176
     1
290
     0
176
     1
 90
        1
176
     1
 40
0.0
176
     1
 90
        0
176
     1
290
     0
176
     1
290
     1
176
     1
290
     1
176
     1
290
     0
176
     1
290
     0
176
     1
290
     0
176
     1
290
     0
176
     1
290
     0
176
     1
290
     0
176
     1
 90
       50
176
     1
 40
0.0
176
     1
 40
1.0
176
     1
 90
        0
176
     1
 62
   178
420
        0
176
     1
 90
       50
176
     1
 90
        3
176
     1
 62
     5
420
      255
176
     1
290
     0
176
     1
 90
       50
176
     1
 90
       50
176
     1
 90
       50
176
     1
290
     0
176
     1
 90
       50
176
     1
 62
   256
176
     0
 40
1.0
176
     0
 90
        2
176
     1
  1
strokes_ogs.tif
176
     1
290
     0
176
     1
 40
1.0
176
     1
 40
1.0
176
     1
  0
VISUALSTYLE
  5
1003E
102
{ACAD_REACTORS
330
10028
102
}
330
10028
100
AcDbVisualStyle
  2
X-Ray
 70
    25
177
     3
291
     0
 70
    58
 90
        2
176
     1
 90
        2
176
     1
 90
        1
176
     1
 90
        1
176
     1
 40
0.5
176
     1
 40
30.0
176
     1
 62
     7
420
 16777215
176
     1
 90
        1
176
     1
 90
        0
176
     1
 62
     7
176
     1
 62
   257
176
     1
 90
        1
176
     1
 90
        1
176
     1
 40
1.0
176
     1
 90
        8
176
     1
 62
     7
176
     1
 40
1.0
176
     1
 90
        1
176
     1
 90
        6
176
     1
 90
        2
176
     1
 62
     7
176
     1
 90
        3
176
     1
 90
        0
176
     1
 90
        0
176
     1
290
     0
176
     1
 90
       13
176
     1
 40
0.0
176
     1
 90
        0
176
     1
290
     0
176
     1
290
     1
176
     1
290
     1
176
     1
290
     0
176
     1
290
     0
176
     1
290
     0
176
     1
290
     0
176
     1
290
     0
176
     1
290
     0
176
     1
 90
       50
176
     1
 40
0.0
176
     1
 40
1.0
176
     1
 90
        0
176
     1
 62
   178
420
        0
176
     1
 90
       50
176
     1
 90
        3
176
     1
 62
     5
420
      255
176
     1
290
     0
176
     1
 90
       50
176
     1
 90
       50
176
     1
 90
       50
176
     1
290
     0
176
     1
 90
       50
176
     1
 62
   256
176
     0
 40
1.0
176
     0
 90
        2
176
     1
  1
strokes_ogs.tif
176
     1
290
     0
176
     1
 40
1.0
176
     1
 40
1.0
176
     1
  0
DICTIONARYVAR
  5
1004D
102
{ACAD_REACTORS
330
1004C
102
}
330
1004C
100
DictionaryVariables
280
     0
  1
1:1
  0
DICTIONARYVAR
  5
10052
102
{ACAD_REACTORS
330
1004C
102
}
330
1004C
100
DictionaryVariables
280
     0
  1
Standard
  0
DICTIONARYVAR
  5
10051
102
{ACAD_REACTORS
330
1004C
102
}
330
1004C
100
DictionaryVariables
280
     0
  1
Standard
  0
DICTIONARYVAR
  5
10053
102
{ACAD_REACTORS
330
1004C
102
}
330
1004C
100
DictionaryVariables
280
     0
  1
0
  0
DICTIONARY
  5
1004E
330
10046
100
AcDbDictionary
280
     1
281
     1
  3
ACAD_ROUNDTRIP_2008_TABLESTYLE_CELLSTYLEMAP
360
1004F
  0
CELLSTYLEMAP
  5
1004F
102
{ACAD_REACTORS
330
1004E
102
}
330
1004E
100
AcDbCellStyleMap
 90
        3
300
CELLSTYLE
  1
TABLEFORMAT_BEGIN
 90
        5
170
     1
 91
        0
 92
    32768
 62
   257
 93
        1
300
CONTENTFORMAT
  1
CONTENTFORMAT_BEGIN
 90
        0
 91
        0
 92
        4
 93
        0
300

 40
0.0
140
1.0
 94
        5
 62
     0
340
11
144
6.0
309
CONTENTFORMAT_END
171
     1
301
MARGIN
  1
CELLMARGIN_BEGIN
 40
1.5
 40
1.5
 40
1.5
 40
1.5
 40
1.5
 40
1.5
309
CELLMARGIN_END
 94
        6
 95
        1
302
GRIDFORMAT
  1
GRIDFORMAT_BEGIN
 90
        0
 91
        1
 62
     0
 92
       -2
340
14
 93
        0
 40
0.045
309
GRIDFORMAT_END
 95
        2
302
GRIDFORMAT
  1
GRIDFORMAT_BEGIN
 90
        0
 91
        1
 62
     0
 92
       -2
340
14
 93
        0
 40
0.045
309
GRIDFORMAT_END
 95
        4
302
GRIDFORMAT
  1
GRIDFORMAT_BEGIN
 90
        0
 91
        1
 62
     0
 92
       -2
340
14
 93
        0
 40
0.045
309
GRIDFORMAT_END
 95
        8
302
GRIDFORMAT
  1
GRIDFORMAT_BEGIN
 90
        0
 91
        1
 62
     0
 92
       -2
340
14
 93
        0
 40
0.045
309
GRIDFORMAT_END
 95
       16
302
GRIDFORMAT
  1
GRIDFORMAT_BEGIN
 90
        0
 91
        1
 62
     0
 92
       -2
340
14
 93
        0
 40
0.045
309
GRIDFORMAT_END
 95
       32
302
GRIDFORMAT
  1
GRIDFORMAT_BEGIN
 90
        0
 91
        1
 62
     0
 92
       -2
340
14
 93
        0
 40
0.045
309
GRIDFORMAT_END
309
TABLEFORMAT_END
  1
CELLSTYLE_BEGIN
 90
        1
 91
        1
300
_TITLE
309
CELLSTYLE_END
300
CELLSTYLE
  1
TABLEFORMAT_BEGIN
 90
        5
170
     1
 91
        0
 92
        0
 62
   257
 93
        1
300
CONTENTFORMAT
  1
CONTENTFORMAT_BEGIN
 90
        0
 91
        0
 92
        4
 93
        0
300

 40
0.0
140
1.0
 94
        5
 62
     0
340
11
144
4.5
309
CONTENTFORMAT_END
171
     1
301
MARGIN
  1
CELLMARGIN_BEGIN
 40
1.5
 40
1.5
 40
1.5
 40
1.5
 40
1.5
 40
1.5
309
CELLMARGIN_END
 94
        6
 95
        1
302
GRIDFORMAT
  1
GRIDFORMAT_BEGIN
 90
        0
 91
        1
 62
     0
 92
       -2
340
14
 93
        0
 40
0.045
309
GRIDFORMAT_END
 95
        2
302
GRIDFORMAT
  1
GRIDFORMAT_BEGIN
 90
        0
 91
        1
 62
     0
 92
       -2
340
14
 93
        0
 40
0.045
309
GRIDFORMAT_END
 95
        4
302
GRIDFORMAT
  1
GRIDFORMAT_BEGIN
 90
        0
 91
        1
 62
     0
 92
       -2
340
14
 93
        0
 40
0.045
309
GRIDFORMAT_END
 95
        8
302
GRIDFORMAT
  1
GRIDFORMAT_BEGIN
 90
        0
 91
        1
 62
     0
 92
       -2
340
14
 93
        0
 40
0.045
309
GRIDFORMAT_END
 95
       16
302
GRIDFORMAT
  1
GRIDFORMAT_BEGIN
 90
        0
 91
        1
 62
     0
 92
       -2
340
14
 93
        0
 40
0.045
309
GRIDFORMAT_END
 95
       32
302
GRIDFORMAT
  1
GRIDFORMAT_BEGIN
 90
        0
 91
        1
 62
     0
 92
       -2
340
14
 93
        0
 40
0.045
309
GRIDFORMAT_END
309
TABLEFORMAT_END
  1
CELLSTYLE_BEGIN
 90
        2
 91
        1
300
_HEADER
309
CELLSTYLE_END
300
CELLSTYLE
  1
TABLEFORMAT_BEGIN
 90
        5
170
     1
 91
        0
 92
        0
 62
   257
 93
        1
300
CONTENTFORMAT
  1
CONTENTFORMAT_BEGIN
 90
        0
 91
        0
 92
        4
 93
        0
300

 40
0.0
140
1.0
 94
        2
 62
     0
340
11
144
4.5
309
CONTENTFORMAT_END
171
     1
301
MARGIN
  1
CELLMARGIN_BEGIN
 40
1.5
 40
1.5
 40
1.5
 40
1.5
 40
1.5
 40
1.5
309
CELLMARGIN_END
 94
        6
 95
        1
302
GRIDFORMAT
  1
GRIDFORMAT_BEGIN
 90
        0
 91
        1
 62
     0
 92
       -2
340
14
 93
        0
 40
0.045
309
GRIDFORMAT_END
 95
        2
302
GRIDFORMAT
  1
GRIDFORMAT_BEGIN
 90
        0
 91
        1
 62
     0
 92
       -2
340
14
 93
        0
 40
0.045
309
GRIDFORMAT_END
 95
        4
302
GRIDFORMAT
  1
GRIDFORMAT_BEGIN
 90
        0
 91
        1
 62
     0
 92
       -2
340
14
 93
        0
 40
0.045
309
GRIDFORMAT_END
 95
        8
302
GRIDFORMAT
  1
GRIDFORMAT_BEGIN
 90
        0
 91
        1
 62
     0
 92
       -2
340
14
 93
        0
 40
0.045
309
GRIDFORMAT_END
 95
       16
302
GRIDFORMAT
  1
GRIDFORMAT_BEGIN
 90
        0
 91
        1
 62
     0
 92
       -2
340
14
 93
        0
 40
0.045
309
GRIDFORMAT_END
 95
       32
302
GRIDFORMAT
  1
GRIDFORMAT_BEGIN
 90
        0
 91
        1
 62
     0
 92
       -2
340
14
 93
        0
 40
0.045
309
GRIDFORMAT_END
309
TABLEFORMAT_END
  1
CELLSTYLE_BEGIN
 90
        3
 91
        2
300
_DATA
309
CELLSTYLE_END
  0
ENDSEC
  0
EOF
