  0
SECTION
  2
HEADER
  9
$ACADVER
  1
AC1027
  9
$ACADMAINTVER
 70
   105
  9
$DWGCODEPAGE
  3
ANSI_1252
  9
$REQUIREDVERSIONS
160
                 0
  9
$LASTSAVEDBY
  1
merichar
  9
$INSBASE
 10
0.0
 20
0.0
 30
0.0
  9
$EXTMIN
 10
22.5
 20
73.74164837500001
 30
0.0
  9
$EXTMAX
 10
1065.75
 20
543.75
 30
0.0
  9
$LIMMIN
 10
0.0
 20
0.0
  9
$LIMMAX
 10
12.0
 20
9.0
  9
$ORTHOMODE
 70
     0
  9
$REGENMODE
 70
     1
  9
$FILLMODE
 70
     1
  9
$QTEXTMODE
 70
     0
  9
$MIRRTEXT
 70
     1
  9
$LTSCALE
 40
1.0
  9
$ATTMODE
 70
     1
  9
$TEXTSIZE
 40
2.5
  9
$TRACEWID
 40
0.05
  9
$TEXTSTYLE
  7
STANDARD
  9
$CLAYER
  8
0
  9
$CELTYPE
  6
BYBLOCK
  9
$CECOLOR
 62
   256
  9
$CELTSCALE
 40
1.0
  9
$DISPSILH
 70
     0
  9
$DIMSCALE
 40
1.0
  9
$DIMASZ
 40
0.18
  9
$DIMEXO
 40
0.0625
  9
$DIMDLI
 40
0.38
  9
$DIMRND
 40
0.0
  9
$DIMDLE
 40
0.0
  9
$DIMEXE
 40
0.18
  9
$DIMTP
 40
0.0
  9
$DIMTM
 40
0.0
  9
$DIMTXT
 40
0.18
  9
$DIMCEN
 40
0.09
  9
$DIMTSZ
 40
0.0
  9
$DIMTOL
 70
     0
  9
$DIMLIM
 70
     0
  9
$DIMTIH
 70
     1
  9
$DIMTOH
 70
     1
  9
$DIMSE1
 70
     0
  9
$DIMSE2
 70
     0
  9
$DIMTAD
 70
     0
  9
$DIMZIN
 70
     0
  9
$DIMBLK
  1

  9
$DIMASO
 70
     1
  9
$DIMSHO
 70
     1
  9
$DIMPOST
  1

  9
$DIMAPOST
  1

  9
$DIMALT
 70
     0
  9
$DIMALTD
 70
     2
  9
$DIMALTF
 40
25.4
  9
$DIMLFAC
 40
1.0
  9
$DIMTOFL
 70
     0
  9
$DIMTVP
 40
0.0
  9
$DIMTIX
 70
     0
  9
$DIMSOXD
 70
     0
  9
$DIMSAH
 70
     0
  9
$DIMBLK1
  1

  9
$DIMBLK2
  1

  9
$DIMSTYLE
  2
ISO-25
  9
$DIMCLRD
 70
     0
  9
$DIMCLRE
 70
     0
  9
$DIMCLRT
 70
     0
  9
$DIMTFAC
 40
1.0
  9
$DIMGAP
 40
0.09
  9
$DIMJUST
 70
     0
  9
$DIMSD1
 70
     0
  9
$DIMSD2
 70
     0
  9
$DIMTOLJ
 70
     1
  9
$DIMTZIN
 70
     0
  9
$DIMALTZ
 70
     0
  9
$DIMALTTZ
 70
     0
  9
$DIMUPT
 70
     0
  9
$DIMDEC
 70
     4
  9
$DIMTDEC
 70
     4
  9
$DIMALTU
 70
     2
  9
$DIMALTTD
 70
     2
  9
$DIMTXSTY
  7
STANDARD
  9
$DIMAUNIT
 70
     0
  9
$DIMADEC
 70
     0
  9
$DIMALTRND
 40
0.0
  9
$DIMAZIN
 70
     0
  9
$DIMDSEP
 70
    46
  9
$DIMATFIT
 70
     3
  9
$DIMFRAC
 70
     0
  9
$DIMLDRBLK
  1

  9
$DIMLUNIT
 70
     2
  9
$DIMLWD
 70
    -2
  9
$DIMLWE
 70
    -2
  9
$DIMTMOVE
 70
     2
  9
$DIMFXL
 40
1.0
  9
$DIMFXLON
 70
     0
  9
$DIMJOGANG
 40
0.7853981633974483
  9
$DIMTFILL
 70
     0
  9
$DIMTFILLCLR
 70
     0
  9
$DIMARCSYM
 70
     0
  9
$DIMLTYPE
  6

  9
$DIMLTEX1
  6

  9
$DIMLTEX2
  6

  9
$DIMTXTDIRECTION
 70
     0
  9
$LUNITS
 70
     2
  9
$LUPREC
 70
     4
  9
$SKETCHINC
 40
0.1
  9
$FILLETRAD
 40
0.5
  9
$AUNITS
 70
     0
  9
$AUPREC
 70
     0
  9
$MENU
  1
.
  9
$ELEVATION
 40
0.0
  9
$PELEVATION
 40
0.0
  9
$THICKNESS
 40
0.0
  9
$LIMCHECK
 70
     0
  9
$CHAMFERA
 40
0.0
  9
$CHAMFERB
 40
0.0
  9
$CHAMFERC
 40
0.0
  9
$CHAMFERD
 40
0.0
  9
$SKPOLY
 70
     0
  9
$TDCREATE
 40
0.0
  9
$TDUCREATE
 40
0.0
  9
$TDUPDATE
 40
2457872.528320787
  9
$TDUUPDATE
 40
2457872.73665412
  9
$TDINDWG
 40
0.0000000694
  9
$TDUSRTIMER
 40
2457872.736394699
  9
$USRTIMER
 70
     1
  9
$ANGBASE
 50
0.0
  9
$ANGDIR
 70
     0
  9
$PDMODE
 70
     0
  9
$PDSIZE
 40
0.0
  9
$PLINEWID
 40
0.0
  9
$SPLFRAME
 70
     0
  9
$SPLINETYPE
 70
     6
  9
$SPLINESEGS
 70
     8
  9
$HANDSEED
  5
10056
  9
$SURFTAB1
 70
     6
  9
$SURFTAB2
 70
     6
  9
$SURFTYPE
 70
     6
  9
$SURFU
 70
     6
  9
$SURFV
 70
     6
  9
$UCSBASE
  2

  9
$UCSNAME
  2

  9
$UCSORG
 10
0.0
 20
0.0
 30
0.0
  9
$UCSXDIR
 10
1.0
 20
0.0
 30
0.0
  9
$UCSYDIR
 10
0.0
 20
1.0
 30
0.0
  9
$UCSORTHOREF
  2

  9
$UCSORTHOVIEW
 70
     0
  9
$UCSORGTOP
 10
0.0
 20
0.0
 30
0.0
  9
$UCSORGBOTTOM
 10
0.0
 20
0.0
 30
0.0
  9
$UCSORGLEFT
 10
0.0
 20
0.0
 30
0.0
  9
$UCSORGRIGHT
 10
0.0
 20
0.0
 30
0.0
  9
$UCSORGFRONT
 10
0.0
 20
0.0
 30
0.0
  9
$UCSORGBACK
 10
0.0
 20
0.0
 30
0.0
  9
$PUCSBASE
  2

  9
$PUCSNAME
  2

  9
$PUCSORG
 10
0.0
 20
0.0
 30
0.0
  9
$PUCSXDIR
 10
1.0
 20
0.0
 30
0.0
  9
$PUCSYDIR
 10
0.0
 20
1.0
 30
0.0
  9
$PUCSORTHOREF
  2

  9
$PUCSORTHOVIEW
 70
     0
  9
$PUCSORGTOP
 10
0.0
 20
0.0
 30
0.0
  9
$PUCSORGBOTTOM
 10
0.0
 20
0.0
 30
0.0
  9
$PUCSORGLEFT
 10
0.0
 20
0.0
 30
0.0
  9
$PUCSORGRIGHT
 10
0.0
 20
0.0
 30
0.0
  9
$PUCSORGFRONT
 10
0.0
 20
0.0
 30
0.0
  9
$PUCSORGBACK
 10
0.0
 20
0.0
 30
0.0
  9
$USERI1
 70
     0
  9
$USERI2
 70
     0
  9
$USERI3
 70
     0
  9
$USERI4
 70
     0
  9
$USERI5
 70
     0
  9
$USERR1
 40
0.0
  9
$USERR2
 40
0.0
  9
$USERR3
 40
0.0
  9
$USERR4
 40
0.0
  9
$USERR5
 40
0.0
  9
$WORLDVIEW
 70
     1
  9
$SHADEDGE
 70
     3
  9
$SHADEDIF
 70
    70
  9
$TILEMODE
 70
     1
  9
$MAXACTVP
 70
    64
  9
$PINSBASE
 10
0.0
 20
0.0
 30
0.0
  9
$PLIMCHECK
 70
     0
  9
$PEXTMIN
 10
1.000000000000000E+20
 20
1.000000000000000E+20
 30
1.000000000000000E+20
  9
$PEXTMAX
 10
-1.000000000000000E+20
 20
-1.000000000000000E+20
 30
-1.000000000000000E+20
  9
$PLIMMIN
 10
0.0
 20
0.0
  9
$PLIMMAX
 10
0.0
 20
0.0
  9
$UNITMODE
 70
     0
  9
$VISRETAIN
 70
     1
  9
$PLINEGEN
 70
     0
  9
$PSLTSCALE
 70
     1
  9
$TREEDEPTH
 70
  3020
  9
$CMLSTYLE
  2
STANDARD
  9
$CMLJUST
 70
     0
  9
$CMLSCALE
 40
1.0
  9
$PROXYGRAPHICS
 70
     1
  9
$MEASUREMENT
 70
     1
  9
$CELWEIGHT
370
    -1
  9
$ENDCAPS
280
     0
  9
$JOINSTYLE
280
     0
  9
$LWDISPLAY
290
     0
  9
$INSUNITS
 70
     0
  9
$HYPERLINKBASE
  1

  9
$STYLESHEET
  1

  9
$XEDIT
290
     1
  9
$CEPSNTYPE
380
     0
  9
$PSTYLEMODE
290
     1
  9
$FINGERPRINTGUID
  2
{929d5ee8-7a49-4608-a74e-aff891971232}
  9
$VERSIONGUID
  2
{FAEB1C32-E019-11D5-929B-00C0DF256EC4}
  9
$EXTNAMES
290
     1
  9
$PSVPSCALE
 40
0.0
  9
$OLESTARTUP
290
     0
  9
$SORTENTS
280
   127
  9
$INDEXCTL
280
     0
  9
$HIDETEXT
280
     1
  9
$XCLIPFRAME
280
     2
  9
$HALOGAP
280
     0
  9
$OBSCOLOR
 70
   257
  9
$OBSLTYPE
280
     0
  9
$INTERSECTIONDISPLAY
280
     0
  9
$INTERSECTIONCOLOR
 70
   257
  9
$DIMASSOC
280
     2
  9
$PROJECTNAME
  1

  9
$CAMERADISPLAY
290
     0
  9
$LENSLENGTH
 40
50.0
  9
$CAMERAHEIGHT
 40
0.0
  9
$STEPSPERSEC
 40
2.0
  9
$STEPSIZE
 40
6.0
  9
$3DDWFPREC
 40
2.0
  9
$PSOLWIDTH
 40
0.25
  9
$PSOLHEIGHT
 40
4.0
  9
$LOFTANG1
 40
1.570796326794897
  9
$LOFTANG2
 40
1.570796326794897
  9
$LOFTMAG1
 40
0.0
  9
$LOFTMAG2
 40
0.0
  9
$LOFTPARAM
 70
     7
  9
$LOFTNORMALS
280
     1
  9
$LATITUDE
 40
37.795
  9
$LONGITUDE
 40
-122.394
  9
$NORTHDIRECTION
 40
0.0
  9
$TIMEZONE
 70
 -8000
  9
$LIGHTGLYPHDISPLAY
280
     1
  9
$TILEMODELIGHTSYNCH
280
     1
  9
$SOLIDHIST
280
     0
  9
$SHOWHIST
280
     1
  9
$DWFFRAME
280
     2
  9
$DGNFRAME
280
     2
  9
$REALWORLDSCALE
290
     1
  9
$INTERFERECOLOR
 62
   256
  9
$CSHADOW
280
     0
  9
$SHADOWPLANELOCATION
 40
0.0
  0
ENDSEC
  0
SECTION
  2
CLASSES
  0
CLASS
  1
ACDBDICTIONARYWDFLT
  2
AcDbDictionaryWithDefault
  3
ObjectDBX Classes
 90
        0
 91
        7
280
     0
281
     0
  0
CLASS
  1
SCALE
  2
AcDbScale
  3
ObjectDBX Classes
 90
     1153
 91
        7
280
     0
281
     0
  0
CLASS
  1
VISUALSTYLE
  2
AcDbVisualStyle
  3
ObjectDBX Classes
 90
     4095
 91
        7
280
     0
281
     0
  0
CLASS
  1
MATERIAL
  2
AcDbMaterial
  3
ObjectDBX Classes
 90
     1153
 91
        7
280
     0
281
     0
  0
CLASS
  1
TABLESTYLE
  2
AcDbTableStyle
  3
ObjectDBX Classes
 90
     4095
 91
        7
280
     0
281
     0
  0
CLASS
  1
MLEADERSTYLE
  2
AcDbMLeaderStyle
  3
ACDB_MLEADERSTYLE_CLASS
 90
     4095
 91
        7
280
     0
281
     0
  0
CLASS
  1
SUN
  2
AcDbSun
  3
SCENEOE
 90
     1153
 91
        7
280
     0
281
     0
  0
CLASS
  1
RASTERVARIABLES
  2
AcDbRasterVariables
  3
ISM
 90
        0
 91
        7
280
     0
281
     0
  0
CLASS
  1
DICTIONARYVAR
  2
AcDbDictionaryVar
  3
ObjectDBX Classes
 90
        0
 91
        6
280
     0
281
     0
  0
CLASS
  1
CELLSTYLEMAP
  2
AcDbCellStyleMap
  3
ObjectDBX Classes
 90
     1152
 91
        6
280
     0
281
     0
  0
ENDSEC
  0
SECTION
  2
TABLES
  0
TABLE
  2
VPORT
  5
8
330
0
100
AcDbSymbolTable
 70
     1
  0
VPORT
  5
2E
330
8
100
AcDbSymbolTableRecord
100
AcDbViewportTableRecord
  2
*ACTIVE
 70
     0
 10
0.0
 20
0.0
 11
1.0
 21
1.0
 12
210.0
 22
148.5
 13
0.0
 23
0.0
 14
10.0
 24
10.0
 15
10.0
 25
10.0
 16
0.0
 26
0.0
 36
1.0
 17
0.0
 27
0.0
 37
0.0
 40
341.0
 41
1.24
 42
50.0
 43
0.0
 44
0.0
 50
0.0
 51
0.0
 71
     0
 72
   100
 73
     1
 74
     3
 75
     0
 76
     0
 77
     0
 78
     0
281
     0
 65
     1
110
0.0
120
0.0
130
0.0
111
1.0
121
0.0
131
0.0
112
0.0
122
1.0
132
0.0
 79
     0
146
0.0
348
1002D
 60
     3
 61
     5
292
     1
282
     1
141
0.0
142
0.0
 63
   256
361
1004A
  0
ENDTAB
  0
TABLE
  2
LTYPE
  5
5
330
0
100
AcDbSymbolTable
 70
     1
  0
LTYPE
  5
14
330
5
100
AcDbSymbolTableRecord
100
AcDbLinetypeTableRecord
  2
BYBLOCK
 70
     0
  3

 72
    65
 73
     0
 40
0.0
  0
LTYPE
  5
15
330
5
100
AcDbSymbolTableRecord
100
AcDbLinetypeTableRecord
  2
BYLAYER
 70
     0
  3

 72
    65
 73
     0
 40
0.0
  0
LTYPE
  5
16
330
5
100
AcDbSymbolTableRecord
100
AcDbLinetypeTableRecord
  2
CONTINUOUS
 70
     0
  3
Solid line
 72
    65
 73
     0
 40
0.0
  0
ENDTAB
  0
TABLE
  2
LAYER
  5
2
330
0
100
AcDbSymbolTable
 70
     1
  0
LAYER
  5
50
330
2
100
AcDbSymbolTableRecord
100
AcDbLayerTableRecord
  2
0
 70
     0
 62
     7
  6
CONTINUOUS
370
    -3
390
10002
347
10044
348
0
  0
ENDTAB
  0
TABLE
  2
STYLE
  5
3
330
0
100
AcDbSymbolTable
 70
     1
  0
STYLE
  5
11
330
3
100
AcDbSymbolTableRecord
100
AcDbTextStyleTableRecord
  2
STANDARD
 70
     0
 40
0.0
 41
1.0
 50
0.0
 71
     0
 42
2.5
  3
txt
  4

  0
ENDTAB
  0
TABLE
  2
VIEW
  5
6
330
0
100
AcDbSymbolTable
 70
     0
  0
ENDTAB
  0
TABLE
  2
UCS
  5
7
330
0
100
AcDbSymbolTable
 70
     0
  0
ENDTAB
  0
TABLE
  2
APPID
  5
9
330
0
100
AcDbSymbolTable
 70
     1
  0
APPID
  5
12
330
9
100
AcDbSymbolTableRecord
100
AcDbRegAppTableRecord
  2
ACAD
 70
     0
  0
ENDTAB
  0
TABLE
  2
DIMSTYLE
  5
A
330
0
100
AcDbSymbolTable
 70
     1
100
AcDbDimStyleTable
  0
DIMSTYLE
105
27
330
A
100
AcDbSymbolTableRecord
100
AcDbDimStyleTableRecord
  2
ISO-25
 70
     0
 41
2.5
 42
0.625
 43
3.75
 44
1.25
 73
     0
 74
     0
 77
     1
 78
     8
140
2.5
141
2.5
143
0.03937007874016
147
0.625
171
     3
172
     1
178
     0
271
     2
272
     2
274
     3
283
     0
284
     8
340
11
  0
ENDTAB
  0
TABLE
  2
BLOCK_RECORD
  5
1
330
0
100
AcDbSymbolTable
 70
     0
  0
BLOCK_RECORD
  5
1F
330
1
100
AcDbSymbolTableRecord
100
AcDbBlockTableRecord
  2
*MODEL_SPACE
340
10026
 70
     0
280
     1
281
     0
  0
BLOCK_RECORD
  5
1B
330
1
100
AcDbSymbolTableRecord
100
AcDbBlockTableRecord
  2
*PAPER_SPACE
340
10027
 70
     0
280
     1
281
     0
  0
ENDTAB
  0
ENDSEC
  0
SECTION
  2
BLOCKS
  0
BLOCK
  5
20
330
1F
100
AcDbEntity
  8
0
100
AcDbBlockBegin
  2
*MODEL_SPACE
 70
     0
 10
0.0
 20
0.0
 30
0.0
  3
*MODEL_SPACE
  1

  0
ENDBLK
  5
21
330
1F
100
AcDbEntity
  8
0
100
AcDbBlockEnd
  0
BLOCK
  5
1C
330
1B
100
AcDbEntity
 67
     1
  8
0
100
AcDbBlockBegin
  2
*PAPER_SPACE
 70
     0
 10
0.0
 20
0.0
 30
0.0
  3
*PAPER_SPACE
  1

  0
ENDBLK
  5
1D
330
1B
100
AcDbEntity
 67
     1
  8
0
100
AcDbBlockEnd
  0
ENDSEC
  0
SECTION
  2
ENTITIES
  0
SPLINE
  5
100
330
1F
100
AcDbEntity
  8
0
 62
     7
100
AcDbSpline
210
0.0
220
0.0
230
1.0
 70
     8
 71
     3
 72
     8
 73
     4
 74
     0
 42
0.000000001
 43
0.0000001
 40
0.0
 40
0.0
 40
0.0
 40
0.0
 40
1.0
 40
1.0
 40
1.0
 40
1.0
 10
940.3104
 20
74.264797
 30
0.0
 10
937.1124
 20
74.570047
 30
0.0
 10
934.0275
 20
75.20847
 30
0.0
 10
933.4551
 20
75.683513
 30
0.0
  0
SPLINE
  5
101
330
1F
100
AcDbEntity
  8
0
 62
     7
100
AcDbSpline
210
0.0
220
0.0
230
1.0
 70
     8
 71
     3
 72
     8
 73
     4
 74
     0
 42
0.000000001
 43
0.0000001
 40
0.0
 40
0.0
 40
0.0
 40
0.0
 40
1.0
 40
1.0
 40
1.0
 40
1.0
 10
933.4551
 20
75.683513
 30
0.0
 10
930.956625
 20
77.757052
 30
0.0
 10
929.44125
 20
83.567895
 30
0.0
 10
928.939125
 20
93.0
 30
0.0
  0
SPLINE
  5
102
330
1F
100
AcDbEntity
  8
0
 62
     7
100
AcDbSpline
210
0.0
220
0.0
230
1.0
 70
     8
 71
     3
 72
     8
 73
     4
 74
     0
 42
0.000000001
 43
0.0000001
 40
0.0
 40
0.0
 40
0.0
 40
0.0
 40
1.0
 40
1.0
 40
1.0
 40
1.0
 10
928.939125
 20
93.0
 30
0.0
 10
928.1658
 20
107.528003
 30
0.0
 10
926.307525
 20
109.875
 30
0.0
 10
915.57795
 20
109.875
 30
0.0
  0
SPLINE
  5
103
330
1F
100
AcDbEntity
  8
0
 62
     7
100
AcDbSpline
210
0.0
220
0.0
230
1.0
 70
     8
 71
     3
 72
     8
 73
     4
 74
     0
 42
0.000000001
 43
0.0000001
 40
0.0
 40
0.0
 40
0.0
 40
0.0
 40
1.0
 40
1.0
 40
1.0
 40
1.0
 10
910.241925
 20
113.79711
 30
0.0
 10
910.629675
 20
117.096127
 30
0.0
 10
910.4955
 20
117.798802
 30
0.0
 10
909.397425
 20
118.22016
 30
0.0
  0
SPLINE
  5
104
330
1F
100
AcDbEntity
  8
0
 62
     7
100
AcDbSpline
210
0.0
220
0.0
230
1.0
 70
     8
 71
     3
 72
     8
 73
     4
 74
     0
 42
0.000000001
 43
0.0000001
 40
0.0
 40
0.0
 40
0.0
 40
0.0
 40
1.0
 40
1.0
 40
1.0
 40
1.0
 10
909.397425
 20
118.22016
 30
0.0
 10
908.441625
 20
118.586955
 30
0.0
 10
907.2897
 20
117.782445
 30
0.0
 10
905.09595
 20
115.21599
 30
0.0
  0
SPLINE
  5
105
330
1F
100
AcDbEntity
  8
0
 62
     7
100
AcDbSpline
210
0.0
220
0.0
230
1.0
 70
     8
 71
     3
 72
     8
 73
     4
 74
     0
 42
0.000000001
 43
0.0000001
 40
0.0
 40
0.0
 40
0.0
 40
0.0
 40
1.0
 40
1.0
 40
1.0
 40
1.0
 10
905.09595
 20
115.21599
 30
0.0
 10
901.399425
 20
110.891475
 30
0.0
 10
899.3805
 20
109.83738
 30
0.0
 10
893.58105
 20
109.204155
 30
0.0
  0
LWPOLYLINE
  5
106
330
1F
100
AcDbEntity
  8
0
 62
     7
100
AcDbPolyline
 90
        3
 70
     0
 43
0.0
 10
915.57795
 20
109.875
 10
909.780975
 20
109.875
 10
910.241925
 20
113.79711
  0
SPLINE
  5
107
330
1F
100
AcDbEntity
  8
0
 62
     7
100
AcDbSpline
210
0.0
220
0.0
230
1.0
 70
     8
 71
     3
 72
     8
 73
     4
 74
     0
 42
0.000000001
 43
0.0000001
 40
0.0
 40
0.0
 40
0.0
 40
0.0
 40
1.0
 40
1.0
 40
1.0
 40
1.0
 10
887.730225
 20
112.854
 30
0.0
 10
887.011425
 20
115.1343
 30
0.0
 10
886.130625
 20
117.0
 30
0.0
 10
885.772875
 20
117.0
 30
0.0
  0
SPLINE
  5
108
330
1F
100
AcDbEntity
  8
0
 62
     7
100
AcDbSpline
210
0.0
220
0.0
230
1.0
 70
     8
 71
     3
 72
     8
 73
     4
 74
     0
 42
0.000000001
 43
0.0000001
 40
0.0
 40
0.0
 40
0.0
 40
0.0
 40
1.0
 40
1.0
 40
1.0
 40
1.0
 10
885.772875
 20
117.0
 30
0.0
 10
885.41505
 20
117.0
 30
0.0
 10
884.38965
 20
115.814483
 30
0.0
 10
883.49415
 20
114.365513
 30
0.0
  0
SPLINE
  5
109
330
1F
100
AcDbEntity
  8
0
 62
     7
100
AcDbSpline
210
0.0
220
0.0
230
1.0
 70
     8
 71
     3
 72
     8
 73
     4
 74
     0
 42
0.000000001
 43
0.0000001
 40
0.0
 40
0.0
 40
0.0
 40
0.0
 40
1.0
 40
1.0
 40
1.0
 40
1.0
 10
883.49415
 20
114.365513
 30
0.0
 10
881.432175
 20
111.02919
 30
0.0
 10
879.947175
 20
110.25
 30
0.0
 10
875.6508
 20
110.25
 30
0.0
  0
SPLINE
  5
10A
330
1F
100
AcDbEntity
  8
0
 62
     7
100
AcDbSpline
210
0.0
220
0.0
230
1.0
 70
     8
 71
     3
 72
     8
 73
     4
 74
     0
 42
0.000000001
 43
0.0000001
 40
0.0
 40
0.0
 40
0.0
 40
0.0
 40
1.0
 40
1.0
 40
1.0
 40
1.0
 10
875.6508
 20
110.25
 30
0.0
 10
871.407525
 20
110.25
 30
0.0
 10
870.990825
 20
109.43352
 30
0.0
 10
872.2371
 20
103.560758
 30
0.0
  0
SPLINE
  5
10B
330
1F
100
AcDbEntity
  8
0
 62
     7
100
AcDbSpline
210
0.0
220
0.0
230
1.0
 70
     8
 71
     3
 72
     8
 73
     4
 74
     0
 42
0.000000001
 43
0.0000001
 40
0.0
 40
0.0
 40
0.0
 40
0.0
 40
1.0
 40
1.0
 40
1.0
 40
1.0
 10
872.2371
 20
103.560758
 30
0.0
 10
873.8526
 20
95.948325
 30
0.0
 10
872.91225
 20
95.108355
 30
0.0
 10
862.5
 20
94.8627
 30
0.0
  0
LWPOLYLINE
  5
10C
330
1F
100
AcDbEntity
  8
0
 62
     7
100
AcDbPolyline
 90
        3
 70
     0
 43
0.0
 10
893.58105
 20
109.204155
 10
889.037175
 20
108.708008
 10
887.730225
 20
112.854
  0
SPLINE
  5
10D
330
1F
100
AcDbEntity
  8
0
 62
     7
100
AcDbSpline
210
0.0
220
0.0
230
1.0
 70
     8
 71
     3
 72
     8
 73
     4
 74
     0
 42
0.000000001
 43
0.0000001
 40
0.0
 40
0.0
 40
0.0
 40
0.0
 40
1.0
 40
1.0
 40
1.0
 40
1.0
 10
856.373025
 20
90.970238
 30
0.0
 10
856.7469
 20
85.32975
 30
0.0
 10
855.824775
 20
84.75
 30
0.0
 10
846.48
 20
84.75
 30
0.0
  0
SPLINE
  5
10E
330
1F
100
AcDbEntity
  8
0
 62
     7
100
AcDbSpline
210
0.0
220
0.0
230
1.0
 70
     8
 71
     3
 72
     8
 73
     4
 74
     0
 42
0.000000001
 43
0.0000001
 40
0.0
 40
0.0
 40
0.0
 40
0.0
 40
1.0
 40
1.0
 40
1.0
 40
1.0
 10
846.48
 20
84.75
 30
0.0
 10
840.2979
 20
84.75
 30
0.0
 10
838.248675
 20
85.039853
 30
0.0
 10
835.875
 20
86.25
 30
0.0
  0
SPLINE
  5
10F
330
1F
100
AcDbEntity
  8
0
 62
     7
100
AcDbSpline
210
0.0
220
0.0
230
1.0
 70
     8
 71
     3
 72
     8
 73
     4
 74
     0
 42
0.000000001
 43
0.0000001
 40
0.0
 40
0.0
 40
0.0
 40
0.0
 40
1.0
 40
1.0
 40
1.0
 40
1.0
 10
835.875
 20
86.25
 30
0.0
 10
832.943625
 20
87.744518
 30
0.0
 10
831.4521
 20
87.75
 30
0.0
 10
427.71642
 20
87.75
 30
0.0
  0
LWPOLYLINE
  5
110
330
1F
100
AcDbEntity
  8
0
 62
     7
100
AcDbPolyline
 90
        3
 70
     0
 43
0.0
 10
862.5
 20
94.8627
 10
856.125
 20
94.712295
 10
856.373025
 20
90.970238
  0
SPLINE
  5
111
330
1F
100
AcDbEntity
  8
0
 62
     7
100
AcDbSpline
210
0.0
220
0.0
230
1.0
 70
     8
 71
     3
 72
     8
 73
     4
 74
     0
 42
0.000000001
 43
0.0000001
 40
0.0
 40
0.0
 40
0.0
 40
0.0
 40
1.0
 40
1.0
 40
1.0
 40
1.0
 10
999.0
 20
385.875
 30
0.0
 10
999.0
 20
299.04375
 30
0.0
 10
999.19095
 20
228.0
 30
0.0
 10
999.424275
 20
228.0
 30
0.0
  0
SPLINE
  5
112
330
1F
100
AcDbEntity
  8
0
 62
     7
100
AcDbSpline
210
0.0
220
0.0
230
1.0
 70
     8
 71
     3
 72
     8
 73
     4
 74
     0
 42
0.000000001
 43
0.0000001
 40
0.0
 40
0.0
 40
0.0
 40
0.0
 40
1.0
 40
1.0
 40
1.0
 40
1.0
 10
999.424275
 20
228.0
 30
0.0
 10
1001.4048
 20
228.0
 30
0.0
 10
1006.32465
 20
234.45807
 30
0.0
 10
1010.552925
 20
242.608117
 30
0.0
  0
LWPOLYLINE
  5
113
330
1F
100
AcDbEntity
  8
0
 62
     7
100
AcDbPolyline
 90
        7
 70
     0
 43
0.0
 10
427.71642
 20
87.75
 10
22.5
 20
87.75
 10
22.5
 20
315.75
 10
22.5
 20
543.75
 10
510.75
 20
543.75
 10
999.0
 20
543.75
 10
999.0
 20
385.875
  0
SPLINE
  5
114
330
1F
100
AcDbEntity
  8
0
 62
     7
100
AcDbSpline
210
0.0
220
0.0
230
1.0
 70
     8
 71
     3
 72
     8
 73
     4
 74
     0
 42
0.000000001
 43
0.0000001
 40
0.0
 40
0.0
 40
0.0
 40
0.0
 40
1.0
 40
1.0
 40
1.0
 40
1.0
 10
1015.7679
 20
240.9375
 30
0.0
 10
1016.598075
 20
243.721875
 30
0.0
 10
1017.468
 20
245.998733
 30
0.0
 10
1017.701175
 20
245.997187
 30
0.0
  0
SPLINE
  5
115
330
1F
100
AcDbEntity
  8
0
 62
     7
100
AcDbSpline
210
0.0
220
0.0
230
1.0
 70
     8
 71
     3
 72
     8
 73
     4
 74
     0
 42
0.000000001
 43
0.0000001
 40
0.0
 40
0.0
 40
0.0
 40
0.0
 40
1.0
 40
1.0
 40
1.0
 40
1.0
 10
1017.701175
 20
245.997187
 30
0.0
 10
1018.66875
 20
245.990437
 30
0.0
 10
1020.7512
 20
239.363655
 30
0.0
 10
1020.7665
 20
236.242118
 30
0.0
  0
SPLINE
  5
116
330
1F
100
AcDbEntity
  8
0
 62
     7
100
AcDbSpline
210
0.0
220
0.0
230
1.0
 70
     8
 71
     3
 72
     8
 73
     4
 74
     0
 42
0.000000001
 43
0.0000001
 40
0.0
 40
0.0
 40
0.0
 40
0.0
 40
1.0
 40
1.0
 40
1.0
 40
1.0
 10
1020.7665
 20
236.242118
 30
0.0
 10
1020.789
 20
231.596745
 30
0.0
 10
1022.976675
 20
227.208292
 30
0.0
 10
1026.77925
 20
224.17968
 30
0.0
  0
SPLINE
  5
117
330
1F
100
AcDbEntity
  8
0
 62
     7
100
AcDbSpline
210
0.0
220
0.0
230
1.0
 70
     8
 71
     3
 72
     8
 73
     4
 74
     0
 42
0.000000001
 43
0.0000001
 40
0.0
 40
0.0
 40
0.0
 40
0.0
 40
1.0
 40
1.0
 40
1.0
 40
1.0
 10
1026.77925
 20
224.17968
 30
0.0
 10
1028.543325
 20
222.774608
 30
0.0
 10
1032.042825
 20
219.76875
 30
0.0
 10
1034.55585
 20
217.5
 30
0.0
  0
SPLINE
  5
118
330
1F
100
AcDbEntity
  8
0
 62
     7
100
AcDbSpline
210
0.0
220
0.0
230
1.0
 70
     8
 71
     3
 72
     8
 73
     4
 74
     0
 42
0.000000001
 43
0.0000001
 40
0.0
 40
0.0
 40
0.0
 40
0.0
 40
1.0
 40
1.0
 40
1.0
 40
1.0
 10
1034.55585
 20
217.5
 30
0.0
 10
1040.550675
 20
212.08791
 30
0.0
 10
1041.420825
 20
211.653922
 30
0.0
 10
1048.889025
 20
210.351577
 30
0.0
  0
SPLINE
  5
119
330
1F
100
AcDbEntity
  8
0
 62
     7
100
AcDbSpline
210
0.0
220
0.0
230
1.0
 70
     8
 71
     3
 72
     8
 73
     4
 74
     0
 42
0.000000001
 43
0.0000001
 40
0.0
 40
0.0
 40
0.0
 40
0.0
 40
1.0
 40
1.0
 40
1.0
 40
1.0
 10
1048.889025
 20
210.351577
 30
0.0
 10
1055.9463
 20
209.120895
 30
0.0
 10
1061.672325
 20
207.11475
 30
0.0
 10
1060.736475
 20
206.200762
 30
0.0
  0
SPLINE
  5
11A
330
1F
100
AcDbEntity
  8
0
 62
     7
100
AcDbSpline
210
0.0
220
0.0
230
1.0
 70
     8
 71
     3
 72
     8
 73
     4
 74
     0
 42
0.000000001
 43
0.0000001
 40
0.0
 40
0.0
 40
0.0
 40
0.0
 40
1.0
 40
1.0
 40
1.0
 40
1.0
 10
1060.736475
 20
206.200762
 30
0.0
 10
1060.400175
 20
205.872315
 30
0.0
 10
1057.950375
 20
204.79401
 30
0.0
 10
1055.2926
 20
203.804528
 30
0.0
  0
SPLINE
  5
11B
330
1F
100
AcDbEntity
  8
0
 62
     7
100
AcDbSpline
210
0.0
220
0.0
230
1.0
 70
     8
 71
     3
 72
     8
 73
     4
 74
     0
 42
0.000000001
 43
0.0000001
 40
0.0
 40
0.0
 40
0.0
 40
0.0
 40
1.0
 40
1.0
 40
1.0
 40
1.0
 10
1055.2926
 20
203.804528
 30
0.0
 10
1052.63475
 20
202.815038
 30
0.0
 10
1050.33705
 20
201.636173
 30
0.0
 10
1050.1866
 20
201.184822
 30
0.0
  0
SPLINE
  5
11C
330
1F
100
AcDbEntity
  8
0
 62
     7
100
AcDbSpline
210
0.0
220
0.0
230
1.0
 70
     8
 71
     3
 72
     8
 73
     4
 74
     0
 42
0.000000001
 43
0.0000001
 40
0.0
 40
0.0
 40
0.0
 40
0.0
 40
1.0
 40
1.0
 40
1.0
 40
1.0
 10
1050.1866
 20
201.184822
 30
0.0
 10
1050.03615
 20
200.733473
 30
0.0
 10
1051.4514
 20
199.462673
 30
0.0
 10
1053.3315
 20
198.360825
 30
0.0
  0
SPLINE
  5
11D
330
1F
100
AcDbEntity
  8
0
 62
     7
100
AcDbSpline
210
0.0
220
0.0
230
1.0
 70
     8
 71
     3
 72
     8
 73
     4
 74
     0
 42
0.000000001
 43
0.0000001
 40
0.0
 40
0.0
 40
0.0
 40
0.0
 40
1.0
 40
1.0
 40
1.0
 40
1.0
 10
1053.3315
 20
198.360825
 30
0.0
 10
1055.211675
 20
197.258978
 30
0.0
 10
1056.75
 20
196.067903
 30
0.0
 10
1056.75
 20
195.713985
 30
0.0
  0
SPLINE
  5
11E
330
1F
100
AcDbEntity
  8
0
 62
     7
100
AcDbSpline
210
0.0
220
0.0
230
1.0
 70
     8
 71
     3
 72
     8
 73
     4
 74
     0
 42
0.000000001
 43
0.0000001
 40
0.0
 40
0.0
 40
0.0
 40
0.0
 40
1.0
 40
1.0
 40
1.0
 40
1.0
 10
1056.75
 20
195.713985
 30
0.0
 10
1056.75
 20
195.026333
 30
0.0
 10
1051.993125
 20
193.51113
 30
0.0
 10
1049.8125
 20
193.504185
 30
0.0
  0
SPLINE
  5
11F
330
1F
100
AcDbEntity
  8
0
 62
     7
100
AcDbSpline
210
0.0
220
0.0
230
1.0
 70
     8
 71
     3
 72
     8
 73
     4
 74
     0
 42
0.000000001
 43
0.0000001
 40
0.0
 40
0.0
 40
0.0
 40
0.0
 40
1.0
 40
1.0
 40
1.0
 40
1.0
 10
1049.8125
 20
193.504185
 30
0.0
 10
1047.682875
 20
193.497435
 30
0.0
 10
1048.253775
 20
192.55086
 30
0.0
 10
1052.8125
 20
188.530118
 30
0.0
  0
SPLINE
  5
120
330
1F
100
AcDbEntity
  8
0
 62
     7
100
AcDbSpline
210
0.0
220
0.0
230
1.0
 70
     8
 71
     3
 72
     8
 73
     4
 74
     0
 42
0.000000001
 43
0.0000001
 40
0.0
 40
0.0
 40
0.0
 40
0.0
 40
1.0
 40
1.0
 40
1.0
 40
1.0
 10
1052.8125
 20
188.530118
 30
0.0
 10
1055.910075
 20
185.798115
 30
0.0
 10
1058.339925
 20
182.592705
 30
0.0
 10
1061.4375
 20
177.152348
 30
0.0
  0
SPLINE
  5
121
330
1F
100
AcDbEntity
  8
0
 62
     7
100
AcDbSpline
210
0.0
220
0.0
230
1.0
 70
     8
 71
     3
 72
     8
 73
     4
 74
     0
 42
0.000000001
 43
0.0000001
 40
0.0
 40
0.0
 40
0.0
 40
0.0
 40
1.0
 40
1.0
 40
1.0
 40
1.0
 10
1061.4375
 20
177.152348
 30
0.0
 10
1063.809375
 20
172.98654
 30
0.0
 10
1065.75
 20
168.89979
 30
0.0
 10
1065.75
 20
168.070688
 30
0.0
  0
SPLINE
  5
122
330
1F
100
AcDbEntity
  8
0
 62
     7
100
AcDbSpline
210
0.0
220
0.0
230
1.0
 70
     8
 71
     3
 72
     8
 73
     4
 74
     0
 42
0.000000001
 43
0.0000001
 40
0.0
 40
0.0
 40
0.0
 40
0.0
 40
1.0
 40
1.0
 40
1.0
 40
1.0
 10
1065.75
 20
168.070688
 30
0.0
 10
1065.75
 20
167.077095
 30
0.0
 10
1064.5995
 20
165.889013
 30
0.0
 10
1062.375
 20
164.585348
 30
0.0
  0
SPLINE
  5
123
330
1F
100
AcDbEntity
  8
0
 62
     7
100
AcDbSpline
210
0.0
220
0.0
230
1.0
 70
     8
 71
     3
 72
     8
 73
     4
 74
     0
 42
0.000000001
 43
0.0000001
 40
0.0
 40
0.0
 40
0.0
 40
0.0
 40
1.0
 40
1.0
 40
1.0
 40
1.0
 10
1062.375
 20
164.585348
 30
0.0
 10
1059.006825
 20
162.611468
 30
0.0
 10
1059.0
 20
162.598898
 30
0.0
 10
1058.997225
 20
158.366235
 30
0.0
  0
SPLINE
  5
124
330
1F
100
AcDbEntity
  8
0
 62
     7
100
AcDbSpline
210
0.0
220
0.0
230
1.0
 70
     8
 71
     3
 72
     8
 73
     4
 74
     0
 42
0.000000001
 43
0.0000001
 40
0.0
 40
0.0
 40
0.0
 40
0.0
 40
1.0
 40
1.0
 40
1.0
 40
1.0
 10
1058.997225
 20
158.366235
 30
0.0
 10
1058.997225
 20
155.497545
 30
0.0
 10
1058.5251
 20
153.35532
 30
0.0
 10
1057.544175
 20
151.74666
 30
0.0
  0
SPLINE
  5
125
330
1F
100
AcDbEntity
  8
0
 62
     7
100
AcDbSpline
210
0.0
220
0.0
230
1.0
 70
     8
 71
     3
 72
     8
 73
     4
 74
     0
 42
0.000000001
 43
0.0000001
 40
0.0
 40
0.0
 40
0.0
 40
0.0
 40
1.0
 40
1.0
 40
1.0
 40
1.0
 10
1057.544175
 20
151.74666
 30
0.0
 10
1056.04215
 20
149.283255
 30
0.0
 10
1051.0881
 20
145.96236
 30
0.0
 10
1047.656625
 20
145.118618
 30
0.0
  0
SPLINE
  5
126
330
1F
100
AcDbEntity
  8
0
 62
     7
100
AcDbSpline
210
0.0
220
0.0
230
1.0
 70
     8
 71
     3
 72
     8
 73
     4
 74
     0
 42
0.000000001
 43
0.0000001
 40
0.0
 40
0.0
 40
0.0
 40
0.0
 40
1.0
 40
1.0
 40
1.0
 40
1.0
 10
1047.656625
 20
145.118618
 30
0.0
 10
1046.574
 20
144.85242
 30
0.0
 10
1045.2966
 20
143.775158
 30
0.0
 10
1044.81795
 20
142.724708
 30
0.0
  0
SPLINE
  5
127
330
1F
100
AcDbEntity
  8
0
 62
     7
100
AcDbSpline
210
0.0
220
0.0
230
1.0
 70
     8
 71
     3
 72
     8
 73
     4
 74
     0
 42
0.000000001
 43
0.0000001
 40
0.0
 40
0.0
 40
0.0
 40
0.0
 40
1.0
 40
1.0
 40
1.0
 40
1.0
 10
1044.81795
 20
142.724708
 30
0.0
 10
1043.977275
 20
140.879565
 30
0.0
 10
1043.897775
 20
140.860028
 30
0.0
 10
1042.4739
 20
142.148633
 30
0.0
  0
SPLINE
  5
128
330
1F
100
AcDbEntity
  8
0
 62
     7
100
AcDbSpline
210
0.0
220
0.0
230
1.0
 70
     8
 71
     3
 72
     8
 73
     4
 74
     0
 42
0.000000001
 43
0.0000001
 40
0.0
 40
0.0
 40
0.0
 40
0.0
 40
1.0
 40
1.0
 40
1.0
 40
1.0
 10
1042.4739
 20
142.148633
 30
0.0
 10
1041.02895
 20
143.456265
 30
0.0
 10
1041.0
 20
143.414565
 30
0.0
 10
1041.0
 20
140.02653
 30
0.0
  0
SPLINE
  5
129
330
1F
100
AcDbEntity
  8
0
 62
     7
100
AcDbSpline
210
0.0
220
0.0
230
1.0
 70
     8
 71
     3
 72
     8
 73
     4
 74
     0
 42
0.000000001
 43
0.0000001
 40
0.0
 40
0.0
 40
0.0
 40
0.0
 40
1.0
 40
1.0
 40
1.0
 40
1.0
 10
1041.0
 20
140.02653
 30
0.0
 10
1041.0
 20
135.901913
 30
0.0
 10
1039.72065
 20
132.75
 30
0.0
 10
1038.0465
 20
132.75
 30
0.0
  0
SPLINE
  5
12A
330
1F
100
AcDbEntity
  8
0
 62
     7
100
AcDbSpline
210
0.0
220
0.0
230
1.0
 70
     8
 71
     3
 72
     8
 73
     4
 74
     0
 42
0.000000001
 43
0.0000001
 40
0.0
 40
0.0
 40
0.0
 40
0.0
 40
1.0
 40
1.0
 40
1.0
 40
1.0
 10
1038.0465
 20
132.75
 30
0.0
 10
1035.701175
 20
132.75
 30
0.0
 10
1033.519875
 20
135.108098
 30
0.0
 10
1030.219125
 20
141.211793
 30
0.0
  0
SPLINE
  5
12B
330
1F
100
AcDbEntity
  8
0
 62
     7
100
AcDbSpline
210
0.0
220
0.0
230
1.0
 70
     8
 71
     3
 72
     8
 73
     4
 74
     0
 42
0.000000001
 43
0.0000001
 40
0.0
 40
0.0
 40
0.0
 40
0.0
 40
1.0
 40
1.0
 40
1.0
 40
1.0
 10
1030.219125
 20
141.211793
 30
0.0
 10
1025.813325
 20
149.358923
 30
0.0
 10
1023.093075
 20
157.368788
 30
0.0
 10
1022.42205
 20
164.170418
 30
0.0
  0
SPLINE
  5
12C
330
1F
100
AcDbEntity
  8
0
 62
     7
100
AcDbSpline
210
0.0
220
0.0
230
1.0
 70
     8
 71
     3
 72
     8
 73
     4
 74
     0
 42
0.000000001
 43
0.0000001
 40
0.0
 40
0.0
 40
0.0
 40
0.0
 40
1.0
 40
1.0
 40
1.0
 40
1.0
 10
1022.42205
 20
164.170418
 30
0.0
 10
1021.754175
 20
170.940653
 30
0.0
 10
1020.900375
 20
171.75252
 30
0.0
 10
1015.8648
 20
170.405708
 30
0.0
  0
SPLINE
  5
12D
330
1F
100
AcDbEntity
  8
0
 62
     7
100
AcDbSpline
210
0.0
220
0.0
230
1.0
 70
     8
 71
     3
 72
     8
 73
     4
 74
     0
 42
0.000000001
 43
0.0000001
 40
0.0
 40
0.0
 40
0.0
 40
0.0
 40
1.0
 40
1.0
 40
1.0
 40
1.0
 10
1015.8648
 20
170.405708
 30
0.0
 10
1013.9685
 20
169.898528
 30
0.0
 10
1011.4179
 20
168.744855
 30
0.0
 10
1010.196675
 20
167.84199
 30
0.0
  0
SPLINE
  5
12E
330
1F
100
AcDbEntity
  8
0
 62
     7
100
AcDbSpline
210
0.0
220
0.0
230
1.0
 70
     8
 71
     3
 72
     8
 73
     4
 74
     0
 42
0.000000001
 43
0.0000001
 40
0.0
 40
0.0
 40
0.0
 40
0.0
 40
1.0
 40
1.0
 40
1.0
 40
1.0
 10
1010.196675
 20
167.84199
 30
0.0
 10
1007.204025
 20
165.629408
 30
0.0
 10
1003.191075
 20
159.640238
 30
0.0
 10
1000.89015
 20
153.952403
 30
0.0
  0
SPLINE
  5
12F
330
1F
100
AcDbEntity
  8
0
 62
     7
100
AcDbSpline
210
0.0
220
0.0
230
1.0
 70
     8
 71
     3
 72
     8
 73
     4
 74
     0
 42
0.000000001
 43
0.0000001
 40
0.0
 40
0.0
 40
0.0
 40
0.0
 40
1.0
 40
1.0
 40
1.0
 40
1.0
 10
1000.89015
 20
153.952403
 30
0.0
 10
999.23355
 20
149.857088
 30
0.0
 10
999.0
 20
148.164795
 30
0.0
 10
999.0
 20
140.254725
 30
0.0
  0
SPLINE
  5
130
330
1F
100
AcDbEntity
  8
0
 62
     7
100
AcDbSpline
210
0.0
220
0.0
230
1.0
 70
     8
 71
     3
 72
     8
 73
     4
 74
     0
 42
0.000000001
 43
0.0000001
 40
0.0
 40
0.0
 40
0.0
 40
0.0
 40
1.0
 40
1.0
 40
1.0
 40
1.0
 10
999.0
 20
140.254725
 30
0.0
 10
999.0
 20
135.290933
 30
0.0
 10
998.684925
 20
130.643603
 30
0.0
 10
998.299725
 20
129.927323
 30
0.0
  0
SPLINE
  5
131
330
1F
100
AcDbEntity
  8
0
 62
     7
100
AcDbSpline
210
0.0
220
0.0
230
1.0
 70
     8
 71
     3
 72
     8
 73
     4
 74
     0
 42
0.000000001
 43
0.0000001
 40
0.0
 40
0.0
 40
0.0
 40
0.0
 40
1.0
 40
1.0
 40
1.0
 40
1.0
 10
998.299725
 20
129.927323
 30
0.0
 10
997.9146
 20
129.211043
 30
0.0
 10
997.21875
 20
126.9375
 30
0.0
 10
996.753375
 20
124.875
 30
0.0
  0
SPLINE
  5
132
330
1F
100
AcDbEntity
  8
0
 62
     7
100
AcDbSpline
210
0.0
220
0.0
230
1.0
 70
     8
 71
     3
 72
     8
 73
     4
 74
     0
 42
0.000000001
 43
0.0000001
 40
0.0
 40
0.0
 40
0.0
 40
0.0
 40
1.0
 40
1.0
 40
1.0
 40
1.0
 10
996.753375
 20
124.875
 30
0.0
 10
995.602125
 20
119.773185
 30
0.0
 10
987.062175
 20
99.762885
 30
0.0
 10
985.460925
 20
98.415465
 30
0.0
  0
SPLINE
  5
133
330
1F
100
AcDbEntity
  8
0
 62
     7
100
AcDbSpline
210
0.0
220
0.0
230
1.0
 70
     8
 71
     3
 72
     8
 73
     4
 74
     0
 42
0.000000001
 43
0.0000001
 40
0.0
 40
0.0
 40
0.0
 40
0.0
 40
1.0
 40
1.0
 40
1.0
 40
1.0
 10
985.460925
 20
98.415465
 30
0.0
 10
979.5498
 20
93.441315
 30
0.0
 10
979.14195
 20
92.171978
 30
0.0
 10
981.810075
 20
87.05313
 30
0.0
  0
SPLINE
  5
134
330
1F
100
AcDbEntity
  8
0
 62
     7
100
AcDbSpline
210
0.0
220
0.0
230
1.0
 70
     8
 71
     3
 72
     8
 73
     4
 74
     0
 42
0.000000001
 43
0.0000001
 40
0.0
 40
0.0
 40
0.0
 40
0.0
 40
1.0
 40
1.0
 40
1.0
 40
1.0
 10
981.810075
 20
87.05313
 30
0.0
 10
983.490225
 20
83.82972
 30
0.0
 10
983.252325
 20
81.453218
 30
0.0
 10
981.136725
 20
80.326388
 30
0.0
  0
SPLINE
  5
135
330
1F
100
AcDbEntity
  8
0
 62
     7
100
AcDbSpline
210
0.0
220
0.0
230
1.0
 70
     8
 71
     3
 72
     8
 73
     4
 74
     0
 42
0.000000001
 43
0.0000001
 40
0.0
 40
0.0
 40
0.0
 40
0.0
 40
1.0
 40
1.0
 40
1.0
 40
1.0
 10
981.136725
 20
80.326388
 30
0.0
 10
979.905375
 20
79.67055
 30
0.0
 10
973.181325
 20
78.589553
 30
0.0
 10
964.125
 20
77.59149
 30
0.0
  0
SPLINE
  5
136
330
1F
100
AcDbEntity
  8
0
 62
     7
100
AcDbSpline
210
0.0
220
0.0
230
1.0
 70
     8
 71
     3
 72
     8
 73
     4
 74
     0
 42
0.000000001
 43
0.0000001
 40
0.0
 40
0.0
 40
0.0
 40
0.0
 40
1.0
 40
1.0
 40
1.0
 40
1.0
 10
964.125
 20
77.59149
 30
0.0
 10
961.65
 20
77.31873
 30
0.0
 10
957.475425
 20
76.286565
 30
0.0
 10
954.848175
 20
75.29778
 30
0.0
  0
SPLINE
  5
137
330
1F
100
AcDbEntity
  8
0
 62
     7
100
AcDbSpline
210
0.0
220
0.0
230
1.0
 70
     8
 71
     3
 72
     8
 73
     4
 74
     0
 42
0.000000001
 43
0.0000001
 40
0.0
 40
0.0
 40
0.0
 40
0.0
 40
1.0
 40
1.0
 40
1.0
 40
1.0
 10
954.848175
 20
75.29778
 30
0.0
 10
949.8201
 20
73.405403
 30
0.0
 10
949.530075
 20
73.3848
 30
0.0
 10
940.3104
 20
74.264798
 30
0.0
  0
LWPOLYLINE
  5
138
330
1F
100
AcDbEntity
  8
0
 62
     7
100
AcDbPolyline
 90
        5
 70
     0
 43
0.0
 10
1010.552925
 20
242.608117
 10
1011.604425
 20
244.634752
 10
1012.931475
 20
240.25488
 10
1014.258525
 20
235.875
 10
1015.7679
 20
240.9375
  0
SPLINE
  5
139
330
1F
100
AcDbEntity
  8
0
 62
     7
100
AcDbSpline
210
0.0
220
0.0
230
1.0
 70
     8
 71
     3
 72
     8
 73
     4
 74
     0
 42
0.000000001
 43
0.0000001
 40
0.0
 40
0.0
 40
0.0
 40
0.0
 40
1.0
 40
1.0
 40
1.0
 40
1.0
 10
855.675225
 20
103.3125
 30
0.0
 10
855.624975
 20
107.750505
 30
0.0
 10
855.40605
 20
109.268002
 30
0.0
 10
855.0
 20
108.0
 30
0.0
  0
SPLINE
  5
13A
330
1F
100
AcDbEntity
  8
0
 62
     7
100
AcDbSpline
210
0.0
220
0.0
230
1.0
 70
     8
 71
     3
 72
     8
 73
     4
 74
     0
 42
0.000000001
 43
0.0000001
 40
0.0
 40
0.0
 40
0.0
 40
0.0
 40
1.0
 40
1.0
 40
1.0
 40
1.0
 10
855.0
 20
108.0
 30
0.0
 10
853.96635
 20
104.772405
 30
0.0
 10
854.296125
 20
96.75
 30
0.0
 10
855.46245
 20
96.75
 30
0.0
  0
SPLINE
  5
13B
330
1F
100
AcDbEntity
  8
0
 62
     7
100
AcDbSpline
210
0.0
220
0.0
230
1.0
 70
     8
 71
     3
 72
     8
 73
     4
 74
     0
 42
0.000000001
 43
0.0000001
 40
0.0
 40
0.0
 40
0.0
 40
0.0
 40
1.0
 40
1.0
 40
1.0
 40
1.0
 10
855.46245
 20
96.75
 30
0.0
 10
855.620625
 20
96.75
 30
0.0
 10
855.716325
 20
99.703125
 30
0.0
 10
855.675225
 20
103.3125
 30
0.0
  0
LWPOLYLINE
  5
13C
330
1F
100
AcDbEntity
  8
0
 62
     7
100
AcDbPolyline
 90
        2
 70
     1
 43
0.0
 10
940.3104
 20
74.264798
 10
940.3104
 20
74.264798
  0
SPLINE
  5
13D
330
1F
100
AcDbEntity
  8
0
 62
     7
100
AcDbSpline
210
0.0
220
0.0
230
1.0
 70
     8
 71
     3
 72
     8
 73
     4
 74
     0
 42
0.000000001
 43
0.0000001
 40
0.0
 40
0.0
 40
0.0
 40
0.0
 40
1.0
 40
1.0
 40
1.0
 40
1.0
 10
829.51155
 20
110.4375
 30
0.0
 10
829.51905
 20
112.190625
 30
0.0
 10
830.19285
 20
116.28336
 30
0.0
 10
831.01155
 20
119.532472
 30
0.0
  0
SPLINE
  5
13E
330
1F
100
AcDbEntity
  8
0
 62
     7
100
AcDbSpline
210
0.0
220
0.0
230
1.0
 70
     8
 71
     3
 72
     8
 73
     4
 74
     0
 42
0.000000001
 43
0.0000001
 40
0.0
 40
0.0
 40
0.0
 40
0.0
 40
1.0
 40
1.0
 40
1.0
 40
1.0
 10
831.01155
 20
119.532472
 30
0.0
 10
832.235325
 20
124.389637
 30
0.0
 10
832.5
 20
127.960897
 30
0.0
 10
832.5
 20
139.619055
 30
0.0
  0
LWPOLYLINE
  5
13F
330
1F
100
AcDbEntity
  8
0
 62
     7
100
AcDbPolyline
 90
        2
 70
     1
 43
0.0
 10
855.675225
 20
103.3125
 10
855.675225
 20
103.3125
  0
SPLINE
  5
140
330
1F
100
AcDbEntity
  8
0
 62
     7
100
AcDbSpline
210
0.0
220
0.0
230
1.0
 70
     8
 71
     3
 72
     8
 73
     4
 74
     0
 42
0.000000001
 43
0.0000001
 40
0.0
 40
0.0
 40
0.0
 40
0.0
 40
1.0
 40
1.0
 40
1.0
 40
1.0
 10
839.91525
 20
168.211582
 30
0.0
 10
843.993675
 20
176.138962
 30
0.0
 10
847.557225
 20
183.689835
 30
0.0
 10
847.8342
 20
184.991295
 30
0.0
  0
SPLINE
  5
141
330
1F
100
AcDbEntity
  8
0
 62
     7
100
AcDbSpline
210
0.0
220
0.0
230
1.0
 70
     8
 71
     3
 72
     8
 73
     4
 74
     0
 42
0.000000001
 43
0.0000001
 40
0.0
 40
0.0
 40
0.0
 40
0.0
 40
1.0
 40
1.0
 40
1.0
 40
1.0
 10
847.8342
 20
184.991295
 30
0.0
 10
848.189625
 20
186.660818
 30
0.0
 10
847.633575
 20
189.64221
 30
0.0
 10
845.946
 20
195.116295
 30
0.0
  0
SPLINE
  5
142
330
1F
100
AcDbEntity
  8
0
 62
     7
100
AcDbSpline
210
0.0
220
0.0
230
1.0
 70
     8
 71
     3
 72
     8
 73
     4
 74
     0
 42
0.000000001
 43
0.0000001
 40
0.0
 40
0.0
 40
0.0
 40
0.0
 40
1.0
 40
1.0
 40
1.0
 40
1.0
 10
845.946
 20
195.116295
 30
0.0
 10
842.32455
 20
206.863447
 30
0.0
 10
840.0639
 20
211.150537
 30
0.0
 10
832.97565
 20
219.713632
 30
0.0
  0
SPLINE
  5
143
330
1F
100
AcDbEntity
  8
0
 62
     7
100
AcDbSpline
210
0.0
220
0.0
230
1.0
 70
     8
 71
     3
 72
     8
 73
     4
 74
     0
 42
0.000000001
 43
0.0000001
 40
0.0
 40
0.0
 40
0.0
 40
0.0
 40
1.0
 40
1.0
 40
1.0
 40
1.0
 10
832.97565
 20
219.713632
 30
0.0
 10
829.337175
 20
224.10912
 30
0.0
 10
826.162275
 20
228.721282
 30
0.0
 10
825.747675
 20
230.213632
 30
0.0
  0
SPLINE
  5
144
330
1F
100
AcDbEntity
  8
0
 62
     7
100
AcDbSpline
210
0.0
220
0.0
230
1.0
 70
     8
 71
     3
 72
     8
 73
     4
 74
     0
 42
0.000000001
 43
0.0000001
 40
0.0
 40
0.0
 40
0.0
 40
0.0
 40
1.0
 40
1.0
 40
1.0
 40
1.0
 10
825.747675
 20
230.213632
 30
0.0
 10
824.09175
 20
236.174415
 30
0.0
 10
825.45765
 20
240.66996
 30
0.0
 10
828.61965
 20
239.66637
 30
0.0
  0
SPLINE
  5
145
330
1F
100
AcDbEntity
  8
0
 62
     7
100
AcDbSpline
210
0.0
220
0.0
230
1.0
 70
     8
 71
     3
 72
     8
 73
     4
 74
     0
 42
0.000000001
 43
0.0000001
 40
0.0
 40
0.0
 40
0.0
 40
0.0
 40
1.0
 40
1.0
 40
1.0
 40
1.0
 10
828.61965
 20
239.66637
 30
0.0
 10
829.51635
 20
239.381775
 30
0.0
 10
830.25
 20
238.822447
 30
0.0
 10
830.25
 20
238.423432
 30
0.0
  0
SPLINE
  5
146
330
1F
100
AcDbEntity
  8
0
 62
     7
100
AcDbSpline
210
0.0
220
0.0
230
1.0
 70
     8
 71
     3
 72
     8
 73
     4
 74
     0
 42
0.000000001
 43
0.0000001
 40
0.0
 40
0.0
 40
0.0
 40
0.0
 40
1.0
 40
1.0
 40
1.0
 40
1.0
 10
830.25
 20
238.423432
 30
0.0
 10
830.25
 20
238.02441
 30
0.0
 10
833.071425
 20
234.756532
 30
0.0
 10
836.519925
 20
231.161467
 30
0.0
  0
SPLINE
  5
147
330
1F
100
AcDbEntity
  8
0
 62
     7
100
AcDbSpline
210
0.0
220
0.0
230
1.0
 70
     8
 71
     3
 72
     8
 73
     4
 74
     0
 42
0.000000001
 43
0.0000001
 40
0.0
 40
0.0
 40
0.0
 40
0.0
 40
1.0
 40
1.0
 40
1.0
 40
1.0
 10
836.519925
 20
231.161467
 30
0.0
 10
839.96835
 20
227.56641
 30
0.0
 10
843.6753
 20
223.206105
 30
0.0
 10
844.757625
 20
221.471902
 30
0.0
  0
SPLINE
  5
148
330
1F
100
AcDbEntity
  8
0
 62
     7
100
AcDbSpline
210
0.0
220
0.0
230
1.0
 70
     8
 71
     3
 72
     8
 73
     4
 74
     0
 42
0.000000001
 43
0.0000001
 40
0.0
 40
0.0
 40
0.0
 40
0.0
 40
1.0
 40
1.0
 40
1.0
 40
1.0
 10
844.757625
 20
221.471902
 30
0.0
 10
845.839875
 20
219.7377
 30
0.0
 10
848.96415
 20
215.51895
 30
0.0
 10
851.70045
 20
212.096902
 30
0.0
  0
SPLINE
  5
149
330
1F
100
AcDbEntity
  8
0
 62
     7
100
AcDbSpline
210
0.0
220
0.0
230
1.0
 70
     8
 71
     3
 72
     8
 73
     4
 74
     0
 42
0.000000001
 43
0.0000001
 40
0.0
 40
0.0
 40
0.0
 40
0.0
 40
1.0
 40
1.0
 40
1.0
 40
1.0
 10
851.70045
 20
212.096902
 30
0.0
 10
864.14115
 20
196.538437
 30
0.0
 10
865.8105
 20
195.757455
 30
0.0
 10
894.6618
 20
191.99736
 30
0.0
  0
SPLINE
  5
14A
330
1F
100
AcDbEntity
  8
0
 62
     7
100
AcDbSpline
210
0.0
220
0.0
230
1.0
 70
     8
 71
     3
 72
     8
 73
     4
 74
     0
 42
0.000000001
 43
0.0000001
 40
0.0
 40
0.0
 40
0.0
 40
0.0
 40
1.0
 40
1.0
 40
1.0
 40
1.0
 10
894.6618
 20
191.99736
 30
0.0
 10
904.307025
 20
190.74033
 30
0.0
 10
913.757025
 20
189.337425
 30
0.0
 10
915.6618
 20
188.87979
 30
0.0
  0
SPLINE
  5
14B
330
1F
100
AcDbEntity
  8
0
 62
     7
100
AcDbSpline
210
0.0
220
0.0
230
1.0
 70
     8
 71
     3
 72
     8
 73
     4
 74
     0
 42
0.000000001
 43
0.0000001
 40
0.0
 40
0.0
 40
0.0
 40
0.0
 40
1.0
 40
1.0
 40
1.0
 40
1.0
 10
915.6618
 20
188.87979
 30
0.0
 10
917.6526
 20
188.401485
 30
0.0
 10
924.788625
 20
188.102288
 30
0.0
 10
932.4465
 20
188.17605
 30
0.0
  0
SPLINE
  5
14C
330
1F
100
AcDbEntity
  8
0
 62
     7
100
AcDbSpline
210
0.0
220
0.0
230
1.0
 70
     8
 71
     3
 72
     8
 73
     4
 74
     0
 42
0.000000001
 43
0.0000001
 40
0.0
 40
0.0
 40
0.0
 40
0.0
 40
1.0
 40
1.0
 40
1.0
 40
1.0
 10
932.4465
 20
188.17605
 30
0.0
 10
951.164475
 20
188.35635
 30
0.0
 10
954.6471
 20
189.623895
 30
0.0
 10
972.5625
 20
202.776735
 30
0.0
  0
LWPOLYLINE
  5
14D
330
1F
100
AcDbEntity
  8
0
 62
     7
100
AcDbPolyline
 90
        3
 70
     0
 43
0.0
 10
832.5
 20
139.619055
 10
832.5
 20
153.798158
 10
839.91525
 20
168.211582
  0
SPLINE
  5
14E
330
1F
100
AcDbEntity
  8
0
 62
     7
100
AcDbSpline
210
0.0
220
0.0
230
1.0
 70
     8
 71
     3
 72
     8
 73
     4
 74
     0
 42
0.000000001
 43
0.0000001
 40
0.0
 40
0.0
 40
0.0
 40
0.0
 40
1.0
 40
1.0
 40
1.0
 40
1.0
 10
305.25
 20
151.162245
 30
0.0
 10
305.25
 20
152.673653
 30
0.0
 10
307.3614
 20
156.75
 30
0.0
 10
308.144257
 20
156.75
 30
0.0
  0
SPLINE
  5
14F
330
1F
100
AcDbEntity
  8
0
 62
     7
100
AcDbSpline
210
0.0
220
0.0
230
1.0
 70
     8
 71
     3
 72
     8
 73
     4
 74
     0
 42
0.000000001
 43
0.0000001
 40
0.0
 40
0.0
 40
0.0
 40
0.0
 40
1.0
 40
1.0
 40
1.0
 40
1.0
 10
308.144257
 20
156.75
 30
0.0
 10
309.60768
 20
156.75
 30
0.0
 10
309.574208
 20
155.615145
 30
0.0
 10
308.031052
 20
152.912227
 30
0.0
  0
SPLINE
  5
150
330
1F
100
AcDbEntity
  8
0
 62
     7
100
AcDbSpline
210
0.0
220
0.0
230
1.0
 70
     8
 71
     3
 72
     8
 73
     4
 74
     0
 42
0.000000001
 43
0.0000001
 40
0.0
 40
0.0
 40
0.0
 40
0.0
 40
1.0
 40
1.0
 40
1.0
 40
1.0
 10
308.031052
 20
152.912227
 30
0.0
 10
306.291675
 20
149.865608
 30
0.0
 10
305.25
 20
149.21013
 30
0.0
 10
305.25
 20
151.162245
 30
0.0
  0
LWPOLYLINE
  5
151
330
1F
100
AcDbEntity
  8
0
 62
     7
100
AcDbPolyline
 90
       12
 70
     0
 43
0.0
 10
972.5625
 20
202.776735
 10
979.5
 20
207.87
 10
979.5
 20
366.06
 10
979.5
 20
524.25
 10
510.75
 20
524.25
 10
42.0
 20
524.25
 10
42.0
 20
315.75
 10
42.0
 20
107.25
 10
435.75
 20
107.25
 10
829.5
 20
107.25
 10
829.51125
 20
110.4375
 10
829.51155
 20
110.4375
  0
SPLINE
  5
152
330
1F
100
AcDbEntity
  8
0
 62
     7
100
AcDbSpline
210
0.0
220
0.0
230
1.0
 70
     8
 71
     3
 72
     8
 73
     4
 74
     0
 42
0.000000001
 43
0.0000001
 40
0.0
 40
0.0
 40
0.0
 40
0.0
 40
1.0
 40
1.0
 40
1.0
 40
1.0
 10
140.93046
 20
153.993765
 30
0.0
 10
136.206487
 20
156.485858
 30
0.0
 10
134.109585
 20
160.35681
 30
0.0
 10
134.455065
 20
165.94758
 30
0.0
  0
SPLINE
  5
153
330
1F
100
AcDbEntity
  8
0
 62
     7
100
AcDbSpline
210
0.0
220
0.0
230
1.0
 70
     8
 71
     3
 72
     8
 73
     4
 74
     0
 42
0.000000001
 43
0.0000001
 40
0.0
 40
0.0
 40
0.0
 40
0.0
 40
1.0
 40
1.0
 40
1.0
 40
1.0
 10
134.455065
 20
165.94758
 30
0.0
 10
134.909768
 20
173.305995
 30
0.0
 10
139.633357
 20
177.75
 30
0.0
 10
147.0
 20
177.75
 30
0.0
  0
SPLINE
  5
154
330
1F
100
AcDbEntity
  8
0
 62
     7
100
AcDbSpline
210
0.0
220
0.0
230
1.0
 70
     8
 71
     3
 72
     8
 73
     4
 74
     0
 42
0.000000001
 43
0.0000001
 40
0.0
 40
0.0
 40
0.0
 40
0.0
 40
1.0
 40
1.0
 40
1.0
 40
1.0
 10
147.0
 20
177.75
 30
0.0
 10
154.366643
 20
177.75
 30
0.0
 10
159.090232
 20
173.305995
 30
0.0
 10
159.544935
 20
165.94758
 30
0.0
  0
SPLINE
  5
155
330
1F
100
AcDbEntity
  8
0
 62
     7
100
AcDbSpline
210
0.0
220
0.0
230
1.0
 70
     8
 71
     3
 72
     8
 73
     4
 74
     0
 42
0.000000001
 43
0.0000001
 40
0.0
 40
0.0
 40
0.0
 40
0.0
 40
1.0
 40
1.0
 40
1.0
 40
1.0
 10
159.544935
 20
165.94758
 30
0.0
 10
159.759353
 20
162.477765
 30
0.0
 10
159.47301
 20
161.04426
 30
0.0
 10
158.09352
 20
158.681265
 30
0.0
  0
SPLINE
  5
156
330
1F
100
AcDbEntity
  8
0
 62
     7
100
AcDbSpline
210
0.0
220
0.0
230
1.0
 70
     8
 71
     3
 72
     8
 73
     4
 74
     0
 42
0.000000001
 43
0.0000001
 40
0.0
 40
0.0
 40
0.0
 40
0.0
 40
1.0
 40
1.0
 40
1.0
 40
1.0
 10
158.09352
 20
158.681265
 30
0.0
 10
156.050827
 20
155.182245
 30
0.0
 10
150.992895
 20
152.25
 30
0.0
 10
147.0
 20
152.25
 30
0.0
  0
SPLINE
  5
157
330
1F
100
AcDbEntity
  8
0
 62
     7
100
AcDbSpline
210
0.0
220
0.0
230
1.0
 70
     8
 71
     3
 72
     8
 73
     4
 74
     0
 42
0.000000001
 43
0.0000001
 40
0.0
 40
0.0
 40
0.0
 40
0.0
 40
1.0
 40
1.0
 40
1.0
 40
1.0
 10
147.0
 20
152.25
 30
0.0
 10
145.479758
 20
152.25
 30
0.0
 10
142.748468
 20
153.034695
 30
0.0
 10
140.93046
 20
153.993765
 30
0.0
  0
LWPOLYLINE
  5
158
330
1F
100
AcDbEntity
  8
0
 62
     7
100
AcDbPolyline
 90
        2
 70
     1
 43
0.0
 10
305.25
 20
151.162245
 10
305.25
 20
151.162245
  0
SPLINE
  5
159
330
1F
100
AcDbEntity
  8
0
 62
     7
100
AcDbSpline
210
0.0
220
0.0
230
1.0
 70
     8
 71
     3
 72
     8
 73
     4
 74
     0
 42
0.000000001
 43
0.0000001
 40
0.0
 40
0.0
 40
0.0
 40
0.0
 40
1.0
 40
1.0
 40
1.0
 40
1.0
 10
152.68938
 20
156.348218
 30
0.0
 10
161.426235
 20
162.072825
 30
0.0
 10
157.244812
 20
175.5
 30
0.0
 10
146.72523
 20
175.5
 30
0.0
  0
SPLINE
  5
15A
330
1F
100
AcDbEntity
  8
0
 62
     7
100
AcDbSpline
210
0.0
220
0.0
230
1.0
 70
     8
 71
     3
 72
     8
 73
     4
 74
     0
 42
0.000000001
 43
0.0000001
 40
0.0
 40
0.0
 40
0.0
 40
0.0
 40
1.0
 40
1.0
 40
1.0
 40
1.0
 10
146.72523
 20
175.5
 30
0.0
 10
138.737018
 20
175.5
 30
0.0
 10
133.779548
 20
166.294095
 30
0.0
 10
138.202448
 20
159.67341
 30
0.0
  0
SPLINE
  5
15B
330
1F
100
AcDbEntity
  8
0
 62
     7
100
AcDbSpline
210
0.0
220
0.0
230
1.0
 70
     8
 71
     3
 72
     8
 73
     4
 74
     0
 42
0.000000001
 43
0.0000001
 40
0.0
 40
0.0
 40
0.0
 40
0.0
 40
1.0
 40
1.0
 40
1.0
 40
1.0
 10
138.202448
 20
159.67341
 30
0.0
 10
141.508568
 20
154.724452
 30
0.0
 10
147.953497
 20
153.245145
 30
0.0
 10
152.68938
 20
156.348218
 30
0.0
  0
LWPOLYLINE
  5
15C
330
1F
100
AcDbEntity
  8
0
 62
     7
100
AcDbPolyline
 90
        2
 70
     1
 43
0.0
 10
140.93046
 20
153.993765
 10
140.93046
 20
153.993765
  0
SPLINE
  5
15D
330
1F
100
AcDbEntity
  8
0
 62
     7
100
AcDbSpline
210
0.0
220
0.0
230
1.0
 70
     8
 71
     3
 72
     8
 73
     4
 74
     0
 42
0.000000001
 43
0.0000001
 40
0.0
 40
0.0
 40
0.0
 40
0.0
 40
1.0
 40
1.0
 40
1.0
 40
1.0
 10
416.220015
 20
153.977055
 30
0.0
 10
409.503203
 20
157.528987
 30
0.0
 10
407.44287
 20
166.803075
 30
0.0
 10
412.033485
 20
172.82169
 30
0.0
  0
SPLINE
  5
15E
330
1F
100
AcDbEntity
  8
0
 62
     7
100
AcDbSpline
210
0.0
220
0.0
230
1.0
 70
     8
 71
     3
 72
     8
 73
     4
 74
     0
 42
0.000000001
 43
0.0000001
 40
0.0
 40
0.0
 40
0.0
 40
0.0
 40
1.0
 40
1.0
 40
1.0
 40
1.0
 10
412.033485
 20
172.82169
 30
0.0
 10
414.790065
 20
176.435738
 30
0.0
 10
417.614557
 20
177.75
 30
0.0
 10
422.625
 20
177.75
 30
0.0
  0
SPLINE
  5
15F
330
1F
100
AcDbEntity
  8
0
 62
     7
100
AcDbSpline
210
0.0
220
0.0
230
1.0
 70
     8
 71
     3
 72
     8
 73
     4
 74
     0
 42
0.000000001
 43
0.0000001
 40
0.0
 40
0.0
 40
0.0
 40
0.0
 40
1.0
 40
1.0
 40
1.0
 40
1.0
 10
422.625
 20
177.75
 30
0.0
 10
427.041322
 20
177.75
 30
0.0
 10
429.9753
 20
176.65164
 30
0.0
 10
432.238125
 20
174.151245
 30
0.0
  0
SPLINE
  5
160
330
1F
100
AcDbEntity
  8
0
 62
     7
100
AcDbSpline
210
0.0
220
0.0
230
1.0
 70
     8
 71
     3
 72
     8
 73
     4
 74
     0
 42
0.000000001
 43
0.0000001
 40
0.0
 40
0.0
 40
0.0
 40
0.0
 40
1.0
 40
1.0
 40
1.0
 40
1.0
 10
432.238125
 20
174.151245
 30
0.0
 10
434.296237
 20
171.877057
 30
0.0
 10
432.423968
 20
171.34545
 30
0.0
 10
429.557385
 20
173.390077
 30
0.0
  0
SPLINE
  5
161
330
1F
100
AcDbEntity
  8
0
 62
     7
100
AcDbSpline
210
0.0
220
0.0
230
1.0
 70
     8
 71
     3
 72
     8
 73
     4
 74
     0
 42
0.000000001
 43
0.0000001
 40
0.0
 40
0.0
 40
0.0
 40
0.0
 40
1.0
 40
1.0
 40
1.0
 40
1.0
 10
429.557385
 20
173.390077
 30
0.0
 10
427.645035
 20
174.754072
 30
0.0
 10
426.13335
 20
175.125
 30
0.0
 10
422.486745
 20
175.125
 30
0.0
  0
SPLINE
  5
162
330
1F
100
AcDbEntity
  8
0
 62
     7
100
AcDbSpline
210
0.0
220
0.0
230
1.0
 70
     8
 71
     3
 72
     8
 73
     4
 74
     0
 42
0.000000001
 43
0.0000001
 40
0.0
 40
0.0
 40
0.0
 40
0.0
 40
1.0
 40
1.0
 40
1.0
 40
1.0
 10
422.486745
 20
175.125
 30
0.0
 10
418.369485
 20
175.125
 30
0.0
 10
417.588352
 20
174.875767
 30
0.0
 10
415.532505
 20
172.906147
 30
0.0
  0
SPLINE
  5
163
330
1F
100
AcDbEntity
  8
0
 62
     7
100
AcDbSpline
210
0.0
220
0.0
230
1.0
 70
     8
 71
     3
 72
     8
 73
     4
 74
     0
 42
0.000000001
 43
0.0000001
 40
0.0
 40
0.0
 40
0.0
 40
0.0
 40
1.0
 40
1.0
 40
1.0
 40
1.0
 10
415.532505
 20
172.906147
 30
0.0
 10
408.963847
 20
166.612965
 30
0.0
 10
411.960247
 20
156.519457
 30
0.0
 10
420.888615
 20
154.863862
 30
0.0
  0
SPLINE
  5
164
330
1F
100
AcDbEntity
  8
0
 62
     7
100
AcDbSpline
210
0.0
220
0.0
230
1.0
 70
     8
 71
     3
 72
     8
 73
     4
 74
     0
 42
0.000000001
 43
0.0000001
 40
0.0
 40
0.0
 40
0.0
 40
0.0
 40
1.0
 40
1.0
 40
1.0
 40
1.0
 10
420.888615
 20
154.863862
 30
0.0
 10
424.142497
 20
154.260495
 30
0.0
 10
428.265997
 20
155.445825
 30
0.0
 10
430.148152
 20
157.525582
 30
0.0
  0
SPLINE
  5
165
330
1F
100
AcDbEntity
  8
0
 62
     7
100
AcDbSpline
210
0.0
220
0.0
230
1.0
 70
     8
 71
     3
 72
     8
 73
     4
 74
     0
 42
0.000000001
 43
0.0000001
 40
0.0
 40
0.0
 40
0.0
 40
0.0
 40
1.0
 40
1.0
 40
1.0
 40
1.0
 10
430.148152
 20
157.525582
 30
0.0
 10
431.168182
 20
158.652705
 30
0.0
 10
431.715232
 20
158.79756
 30
0.0
 10
432.49809
 20
158.147842
 30
0.0
  0
SPLINE
  5
166
330
1F
100
AcDbEntity
  8
0
 62
     7
100
AcDbSpline
210
0.0
220
0.0
230
1.0
 70
     8
 71
     3
 72
     8
 73
     4
 74
     0
 42
0.000000001
 43
0.0000001
 40
0.0
 40
0.0
 40
0.0
 40
0.0
 40
1.0
 40
1.0
 40
1.0
 40
1.0
 10
432.49809
 20
158.147842
 30
0.0
 10
433.89096
 20
156.991867
 30
0.0
 10
432.549015
 20
155.432587
 30
0.0
 10
428.625
 20
153.64761
 30
0.0
  0
SPLINE
  5
167
330
1F
100
AcDbEntity
  8
0
 62
     7
100
AcDbSpline
210
0.0
220
0.0
230
1.0
 70
     8
 71
     3
 72
     8
 73
     4
 74
     0
 42
0.000000001
 43
0.0000001
 40
0.0
 40
0.0
 40
0.0
 40
0.0
 40
1.0
 40
1.0
 40
1.0
 40
1.0
 10
428.625
 20
153.64761
 30
0.0
 10
424.513335
 20
151.77726
 30
0.0
 10
420.16134
 20
151.892835
 30
0.0
 10
416.220015
 20
153.977055
 30
0.0
  0
LWPOLYLINE
  5
168
330
1F
100
AcDbEntity
  8
0
 62
     7
100
AcDbPolyline
 90
        2
 70
     1
 43
0.0
 10
152.68938
 20
156.348218
 10
152.68938
 20
156.348218
  0
SPLINE
  5
169
330
1F
100
AcDbEntity
  8
0
 62
     7
100
AcDbSpline
210
0.0
220
0.0
230
1.0
 70
     8
 71
     3
 72
     8
 73
     4
 74
     0
 42
0.000000001
 43
0.0000001
 40
0.0
 40
0.0
 40
0.0
 40
0.0
 40
1.0
 40
1.0
 40
1.0
 40
1.0
 10
482.974507
 20
153.93753
 30
0.0
 10
474.26841
 20
158.33181
 30
0.0
 10
473.840242
 20
170.416928
 30
0.0
 10
482.19126
 20
176.04468
 30
0.0
  0
SPLINE
  5
16A
330
1F
100
AcDbEntity
  8
0
 62
     7
100
AcDbSpline
210
0.0
220
0.0
230
1.0
 70
     8
 71
     3
 72
     8
 73
     4
 74
     0
 42
0.000000001
 43
0.0000001
 40
0.0
 40
0.0
 40
0.0
 40
0.0
 40
1.0
 40
1.0
 40
1.0
 40
1.0
 10
482.19126
 20
176.04468
 30
0.0
 10
486.623948
 20
179.03187
 30
0.0
 10
495.631643
 20
178.132417
 30
0.0
 10
498.735338
 20
174.392693
 30
0.0
  0
SPLINE
  5
16B
330
1F
100
AcDbEntity
  8
0
 62
     7
100
AcDbSpline
210
0.0
220
0.0
230
1.0
 70
     8
 71
     3
 72
     8
 73
     4
 74
     0
 42
0.000000001
 43
0.0000001
 40
0.0
 40
0.0
 40
0.0
 40
0.0
 40
1.0
 40
1.0
 40
1.0
 40
1.0
 10
498.735338
 20
174.392693
 30
0.0
 10
499.486927
 20
173.487082
 30
0.0
 10
499.522523
 20
172.972553
 30
0.0
 10
498.878145
 20
172.328175
 30
0.0
  0
SPLINE
  5
16C
330
1F
100
AcDbEntity
  8
0
 62
     7
100
AcDbSpline
210
0.0
220
0.0
230
1.0
 70
     8
 71
     3
 72
     8
 73
     4
 74
     0
 42
0.000000001
 43
0.0000001
 40
0.0
 40
0.0
 40
0.0
 40
0.0
 40
1.0
 40
1.0
 40
1.0
 40
1.0
 10
498.878145
 20
172.328175
 30
0.0
 10
498.233775
 20
171.683805
 30
0.0
 10
497.55153
 20
171.909877
 30
0.0
 10
496.140697
 20
173.235277
 30
0.0
  0
SPLINE
  5
16D
330
1F
100
AcDbEntity
  8
0
 62
     7
100
AcDbSpline
210
0.0
220
0.0
230
1.0
 70
     8
 71
     3
 72
     8
 73
     4
 74
     0
 42
0.000000001
 43
0.0000001
 40
0.0
 40
0.0
 40
0.0
 40
0.0
 40
1.0
 40
1.0
 40
1.0
 40
1.0
 10
496.140697
 20
173.235277
 30
0.0
 10
493.543942
 20
175.674802
 30
0.0
 10
487.376692
 20
176.145098
 30
0.0
 10
483.807952
 20
174.175725
 30
0.0
  0
SPLINE
  5
16E
330
1F
100
AcDbEntity
  8
0
 62
     7
100
AcDbSpline
210
0.0
220
0.0
230
1.0
 70
     8
 71
     3
 72
     8
 73
     4
 74
     0
 42
0.000000001
 43
0.0000001
 40
0.0
 40
0.0
 40
0.0
 40
0.0
 40
1.0
 40
1.0
 40
1.0
 40
1.0
 10
483.807952
 20
174.175725
 30
0.0
 10
478.714282
 20
171.364852
 30
0.0
 10
476.99958
 20
164.467845
 30
0.0
 10
480.202448
 20
159.67344
 30
0.0
  0
SPLINE
  5
16F
330
1F
100
AcDbEntity
  8
0
 62
     7
100
AcDbSpline
210
0.0
220
0.0
230
1.0
 70
     8
 71
     3
 72
     8
 73
     4
 74
     0
 42
0.000000001
 43
0.0000001
 40
0.0
 40
0.0
 40
0.0
 40
0.0
 40
1.0
 40
1.0
 40
1.0
 40
1.0
 10
480.202448
 20
159.67344
 30
0.0
 10
483.821175
 20
154.256543
 30
0.0
 10
490.890375
 20
153.08154
 30
0.0
 10
496.074097
 20
157.03536
 30
0.0
  0
SPLINE
  5
170
330
1F
100
AcDbEntity
  8
0
 62
     7
100
AcDbSpline
210
0.0
220
0.0
230
1.0
 70
     8
 71
     3
 72
     8
 73
     4
 74
     0
 42
0.000000001
 43
0.0000001
 40
0.0
 40
0.0
 40
0.0
 40
0.0
 40
1.0
 40
1.0
 40
1.0
 40
1.0
 10
496.074097
 20
157.03536
 30
0.0
 10
498.977618
 20
159.249975
 30
0.0
 10
500.536575
 20
158.40444
 30
0.0
 10
498.26097
 20
155.849258
 30
0.0
  0
SPLINE
  5
171
330
1F
100
AcDbEntity
  8
0
 62
     7
100
AcDbSpline
210
0.0
220
0.0
230
1.0
 70
     8
 71
     3
 72
     8
 73
     4
 74
     0
 42
0.000000001
 43
0.0000001
 40
0.0
 40
0.0
 40
0.0
 40
0.0
 40
1.0
 40
1.0
 40
1.0
 40
1.0
 10
498.26097
 20
155.849258
 30
0.0
 10
494.87229
 20
152.044245
 30
0.0
 10
488.343263
 20
151.22772
 30
0.0
 10
482.974508
 20
153.93753
 30
0.0
  0
LWPOLYLINE
  5
172
330
1F
100
AcDbEntity
  8
0
 62
     7
100
AcDbPolyline
 90
        2
 70
     1
 43
0.0
 10
416.220015
 20
153.977055
 10
416.220015
 20
153.977055
  0
SPLINE
  5
173
330
1F
100
AcDbEntity
  8
0
 62
     7
100
AcDbSpline
210
0.0
220
0.0
230
1.0
 70
     8
 71
     3
 72
     8
 73
     4
 74
     0
 42
0.000000001
 43
0.0000001
 40
0.0
 40
0.0
 40
0.0
 40
0.0
 40
1.0
 40
1.0
 40
1.0
 40
1.0
 10
565.06605
 20
153.672278
 30
0.0
 10
555.563048
 20
157.988325
 30
0.0
 10
554.94711
 20
171.63159
 30
0.0
 10
564.045697
 20
176.273348
 30
0.0
  0
SPLINE
  5
174
330
1F
100
AcDbEntity
  8
0
 62
     7
100
AcDbSpline
210
0.0
220
0.0
230
1.0
 70
     8
 71
     3
 72
     8
 73
     4
 74
     0
 42
0.000000001
 43
0.0000001
 40
0.0
 40
0.0
 40
0.0
 40
0.0
 40
1.0
 40
1.0
 40
1.0
 40
1.0
 10
564.045697
 20
176.273348
 30
0.0
 10
568.327102
 20
178.457558
 30
0.0
 10
574.598895
 20
178.274138
 30
0.0
 10
578.746605
 20
175.843417
 30
0.0
  0
SPLINE
  5
175
330
1F
100
AcDbEntity
  8
0
 62
     7
100
AcDbSpline
210
0.0
220
0.0
230
1.0
 70
     8
 71
     3
 72
     8
 73
     4
 74
     0
 42
0.000000001
 43
0.0000001
 40
0.0
 40
0.0
 40
0.0
 40
0.0
 40
1.0
 40
1.0
 40
1.0
 40
1.0
 10
578.746605
 20
175.843417
 30
0.0
 10
580.53597
 20
174.794775
 30
0.0
 10
582.0
 20
173.633445
 30
0.0
 10
582.0
 20
173.262675
 30
0.0
  0
SPLINE
  5
176
330
1F
100
AcDbEntity
  8
0
 62
     7
100
AcDbSpline
210
0.0
220
0.0
230
1.0
 70
     8
 71
     3
 72
     8
 73
     4
 74
     0
 42
0.000000001
 43
0.0000001
 40
0.0
 40
0.0
 40
0.0
 40
0.0
 40
1.0
 40
1.0
 40
1.0
 40
1.0
 10
582.0
 20
173.262675
 30
0.0
 10
582.0
 20
171.664342
 30
0.0
 10
580.290278
 20
171.8097
 30
0.0
 10
577.100092
 20
173.679278
 30
0.0
  0
SPLINE
  5
177
330
1F
100
AcDbEntity
  8
0
 62
     7
100
AcDbSpline
210
0.0
220
0.0
230
1.0
 70
     8
 71
     3
 72
     8
 73
     4
 74
     0
 42
0.000000001
 43
0.0000001
 40
0.0
 40
0.0
 40
0.0
 40
0.0
 40
1.0
 40
1.0
 40
1.0
 40
1.0
 10
577.100092
 20
173.679278
 30
0.0
 10
574.284525
 20
175.329307
 30
0.0
 10
573.0294
 20
175.621635
 30
0.0
 10
570.007222
 20
175.331243
 30
0.0
  0
SPLINE
  5
178
330
1F
100
AcDbEntity
  8
0
 62
     7
100
AcDbSpline
210
0.0
220
0.0
230
1.0
 70
     8
 71
     3
 72
     8
 73
     4
 74
     0
 42
0.000000001
 43
0.0000001
 40
0.0
 40
0.0
 40
0.0
 40
0.0
 40
1.0
 40
1.0
 40
1.0
 40
1.0
 10
570.007222
 20
175.331243
 30
0.0
 10
565.222642
 20
174.8715
 30
0.0
 10
562.69665
 20
173.135273
 30
0.0
 10
560.8986
 20
169.070467
 30
0.0
  0
SPLINE
  5
179
330
1F
100
AcDbEntity
  8
0
 62
     7
100
AcDbSpline
210
0.0
220
0.0
230
1.0
 70
     8
 71
     3
 72
     8
 73
     4
 74
     0
 42
0.000000001
 43
0.0000001
 40
0.0
 40
0.0
 40
0.0
 40
0.0
 40
1.0
 40
1.0
 40
1.0
 40
1.0
 10
560.8986
 20
169.070467
 30
0.0
 10
559.681192
 20
166.318327
 30
0.0
 10
559.569547
 20
165.277035
 30
0.0
 10
560.22921
 20
162.827235
 30
0.0
  0
SPLINE
  5
17A
330
1F
100
AcDbEntity
  8
0
 62
     7
100
AcDbSpline
210
0.0
220
0.0
230
1.0
 70
     8
 71
     3
 72
     8
 73
     4
 74
     0
 42
0.000000001
 43
0.0000001
 40
0.0
 40
0.0
 40
0.0
 40
0.0
 40
1.0
 40
1.0
 40
1.0
 40
1.0
 10
560.22921
 20
162.827235
 30
0.0
 10
561.80778
 20
156.964875
 30
0.0
 10
568.907422
 20
153.280552
 30
0.0
 10
574.847722
 20
155.24103
 30
0.0
  0
SPLINE
  5
17B
330
1F
100
AcDbEntity
  8
0
 62
     7
100
AcDbSpline
210
0.0
220
0.0
230
1.0
 70
     8
 71
     3
 72
     8
 73
     4
 74
     0
 42
0.000000001
 43
0.0000001
 40
0.0
 40
0.0
 40
0.0
 40
0.0
 40
1.0
 40
1.0
 40
1.0
 40
1.0
 10
574.847722
 20
155.24103
 30
0.0
 10
577.744792
 20
156.197115
 30
0.0
 10
580.5
 20
159.175515
 30
0.0
 10
580.5
 20
161.351145
 30
0.0
  0
SPLINE
  5
17C
330
1F
100
AcDbEntity
  8
0
 62
     7
100
AcDbSpline
210
0.0
220
0.0
230
1.0
 70
     8
 71
     3
 72
     8
 73
     4
 74
     0
 42
0.000000001
 43
0.0000001
 40
0.0
 40
0.0
 40
0.0
 40
0.0
 40
1.0
 40
1.0
 40
1.0
 40
1.0
 10
580.5
 20
161.351145
 30
0.0
 10
580.5
 20
162.52977
 30
0.0
 10
579.909623
 20
162.75
 30
0.0
 10
576.75
 20
162.75
 30
0.0
  0
SPLINE
  5
17D
330
1F
100
AcDbEntity
  8
0
 62
     7
100
AcDbSpline
210
0.0
220
0.0
230
1.0
 70
     8
 71
     3
 72
     8
 73
     4
 74
     0
 42
0.000000001
 43
0.0000001
 40
0.0
 40
0.0
 40
0.0
 40
0.0
 40
1.0
 40
1.0
 40
1.0
 40
1.0
 10
576.75
 20
162.75
 30
0.0
 10
573.916665
 20
162.75
 30
0.0
 10
573.0
 20
163.025003
 30
0.0
 10
573.0
 20
163.875
 30
0.0
  0
SPLINE
  5
17E
330
1F
100
AcDbEntity
  8
0
 62
     7
100
AcDbSpline
210
0.0
220
0.0
230
1.0
 70
     8
 71
     3
 72
     8
 73
     4
 74
     0
 42
0.000000001
 43
0.0000001
 40
0.0
 40
0.0
 40
0.0
 40
0.0
 40
1.0
 40
1.0
 40
1.0
 40
1.0
 10
573.0
 20
163.875
 30
0.0
 10
573.0
 20
164.76786
 30
0.0
 10
574.08333
 20
165.0
 30
0.0
 10
578.25
 20
165.0
 30
0.0
  0
SPLINE
  5
17F
330
1F
100
AcDbEntity
  8
0
 62
     7
100
AcDbSpline
210
0.0
220
0.0
230
1.0
 70
     8
 71
     3
 72
     8
 73
     4
 74
     0
 42
0.000000001
 43
0.0000001
 40
0.0
 40
0.0
 40
0.0
 40
0.0
 40
1.0
 40
1.0
 40
1.0
 40
1.0
 10
578.25
 20
165.0
 30
0.0
 10
583.37196
 20
165.0
 30
0.0
 10
583.5
 20
164.953575
 30
0.0
 10
583.5
 20
163.09512
 30
0.0
  0
SPLINE
  5
180
330
1F
100
AcDbEntity
  8
0
 62
     7
100
AcDbSpline
210
0.0
220
0.0
230
1.0
 70
     8
 71
     3
 72
     8
 73
     4
 74
     0
 42
0.000000001
 43
0.0000001
 40
0.0
 40
0.0
 40
0.0
 40
0.0
 40
1.0
 40
1.0
 40
1.0
 40
1.0
 10
583.5
 20
163.09512
 30
0.0
 10
583.5
 20
162.047437
 30
0.0
 10
582.8052
 20
159.828323
 30
0.0
 10
581.955997
 20
158.16375
 30
0.0
  0
SPLINE
  5
181
330
1F
100
AcDbEntity
  8
0
 62
     7
100
AcDbSpline
210
0.0
220
0.0
230
1.0
 70
     8
 71
     3
 72
     8
 73
     4
 74
     0
 42
0.000000001
 43
0.0000001
 40
0.0
 40
0.0
 40
0.0
 40
0.0
 40
1.0
 40
1.0
 40
1.0
 40
1.0
 10
581.955997
 20
158.16375
 30
0.0
 10
579.216878
 20
152.794628
 30
0.0
 10
571.510545
 20
150.745305
 30
0.0
 10
565.06605
 20
153.672248
 30
0.0
  0
LWPOLYLINE
  5
182
330
1F
100
AcDbEntity
  8
0
 62
     7
100
AcDbPolyline
 90
        2
 70
     1
 43
0.0
 10
482.974508
 20
153.93753
 10
482.974508
 20
153.93753
  0
SPLINE
  5
183
330
1F
100
AcDbEntity
  8
0
 62
     7
100
AcDbSpline
210
0.0
220
0.0
230
1.0
 70
     8
 71
     3
 72
     8
 73
     4
 74
     0
 42
0.000000001
 43
0.0000001
 40
0.0
 40
0.0
 40
0.0
 40
0.0
 40
1.0
 40
1.0
 40
1.0
 40
1.0
 10
616.81605
 20
153.672278
 30
0.0
 10
607.313048
 20
157.988325
 30
0.0
 10
606.69711
 20
171.63159
 30
0.0
 10
615.795697
 20
176.273348
 30
0.0
  0
SPLINE
  5
184
330
1F
100
AcDbEntity
  8
0
 62
     7
100
AcDbSpline
210
0.0
220
0.0
230
1.0
 70
     8
 71
     3
 72
     8
 73
     4
 74
     0
 42
0.000000001
 43
0.0000001
 40
0.0
 40
0.0
 40
0.0
 40
0.0
 40
1.0
 40
1.0
 40
1.0
 40
1.0
 10
615.795697
 20
176.273348
 30
0.0
 10
620.077102
 20
178.457558
 30
0.0
 10
626.348895
 20
178.274138
 30
0.0
 10
630.496605
 20
175.843417
 30
0.0
  0
SPLINE
  5
185
330
1F
100
AcDbEntity
  8
0
 62
     7
100
AcDbSpline
210
0.0
220
0.0
230
1.0
 70
     8
 71
     3
 72
     8
 73
     4
 74
     0
 42
0.000000001
 43
0.0000001
 40
0.0
 40
0.0
 40
0.0
 40
0.0
 40
1.0
 40
1.0
 40
1.0
 40
1.0
 10
630.496605
 20
175.843417
 30
0.0
 10
632.28597
 20
174.794775
 30
0.0
 10
633.75
 20
173.633445
 30
0.0
 10
633.75
 20
173.262675
 30
0.0
  0
SPLINE
  5
186
330
1F
100
AcDbEntity
  8
0
 62
     7
100
AcDbSpline
210
0.0
220
0.0
230
1.0
 70
     8
 71
     3
 72
     8
 73
     4
 74
     0
 42
0.000000001
 43
0.0000001
 40
0.0
 40
0.0
 40
0.0
 40
0.0
 40
1.0
 40
1.0
 40
1.0
 40
1.0
 10
633.75
 20
173.262675
 30
0.0
 10
633.75
 20
171.664342
 30
0.0
 10
632.040278
 20
171.8097
 30
0.0
 10
628.850092
 20
173.679278
 30
0.0
  0
SPLINE
  5
187
330
1F
100
AcDbEntity
  8
0
 62
     7
100
AcDbSpline
210
0.0
220
0.0
230
1.0
 70
     8
 71
     3
 72
     8
 73
     4
 74
     0
 42
0.000000001
 43
0.0000001
 40
0.0
 40
0.0
 40
0.0
 40
0.0
 40
1.0
 40
1.0
 40
1.0
 40
1.0
 10
628.850092
 20
173.679278
 30
0.0
 10
626.034525
 20
175.329307
 30
0.0
 10
624.7794
 20
175.621635
 30
0.0
 10
621.757222
 20
175.331243
 30
0.0
  0
SPLINE
  5
188
330
1F
100
AcDbEntity
  8
0
 62
     7
100
AcDbSpline
210
0.0
220
0.0
230
1.0
 70
     8
 71
     3
 72
     8
 73
     4
 74
     0
 42
0.000000001
 43
0.0000001
 40
0.0
 40
0.0
 40
0.0
 40
0.0
 40
1.0
 40
1.0
 40
1.0
 40
1.0
 10
621.757222
 20
175.331243
 30
0.0
 10
616.972642
 20
174.8715
 30
0.0
 10
614.44665
 20
173.135273
 30
0.0
 10
612.6486
 20
169.070467
 30
0.0
  0
SPLINE
  5
189
330
1F
100
AcDbEntity
  8
0
 62
     7
100
AcDbSpline
210
0.0
220
0.0
230
1.0
 70
     8
 71
     3
 72
     8
 73
     4
 74
     0
 42
0.000000001
 43
0.0000001
 40
0.0
 40
0.0
 40
0.0
 40
0.0
 40
1.0
 40
1.0
 40
1.0
 40
1.0
 10
612.6486
 20
169.070467
 30
0.0
 10
611.431192
 20
166.318327
 30
0.0
 10
611.319547
 20
165.277035
 30
0.0
 10
611.97921
 20
162.827235
 30
0.0
  0
SPLINE
  5
18A
330
1F
100
AcDbEntity
  8
0
 62
     7
100
AcDbSpline
210
0.0
220
0.0
230
1.0
 70
     8
 71
     3
 72
     8
 73
     4
 74
     0
 42
0.000000001
 43
0.0000001
 40
0.0
 40
0.0
 40
0.0
 40
0.0
 40
1.0
 40
1.0
 40
1.0
 40
1.0
 10
611.97921
 20
162.827235
 30
0.0
 10
613.55778
 20
156.964875
 30
0.0
 10
620.657422
 20
153.280552
 30
0.0
 10
626.597722
 20
155.24103
 30
0.0
  0
SPLINE
  5
18B
330
1F
100
AcDbEntity
  8
0
 62
     7
100
AcDbSpline
210
0.0
220
0.0
230
1.0
 70
     8
 71
     3
 72
     8
 73
     4
 74
     0
 42
0.000000001
 43
0.0000001
 40
0.0
 40
0.0
 40
0.0
 40
0.0
 40
1.0
 40
1.0
 40
1.0
 40
1.0
 10
626.597722
 20
155.24103
 30
0.0
 10
629.494792
 20
156.197115
 30
0.0
 10
632.25
 20
159.175515
 30
0.0
 10
632.25
 20
161.351145
 30
0.0
  0
SPLINE
  5
18C
330
1F
100
AcDbEntity
  8
0
 62
     7
100
AcDbSpline
210
0.0
220
0.0
230
1.0
 70
     8
 71
     3
 72
     8
 73
     4
 74
     0
 42
0.000000001
 43
0.0000001
 40
0.0
 40
0.0
 40
0.0
 40
0.0
 40
1.0
 40
1.0
 40
1.0
 40
1.0
 10
632.25
 20
161.351145
 30
0.0
 10
632.25
 20
162.52977
 30
0.0
 10
631.659623
 20
162.75
 30
0.0
 10
628.5
 20
162.75
 30
0.0
  0
SPLINE
  5
18D
330
1F
100
AcDbEntity
  8
0
 62
     7
100
AcDbSpline
210
0.0
220
0.0
230
1.0
 70
     8
 71
     3
 72
     8
 73
     4
 74
     0
 42
0.000000001
 43
0.0000001
 40
0.0
 40
0.0
 40
0.0
 40
0.0
 40
1.0
 40
1.0
 40
1.0
 40
1.0
 10
628.5
 20
162.75
 30
0.0
 10
625.666665
 20
162.75
 30
0.0
 10
624.75
 20
163.025003
 30
0.0
 10
624.75
 20
163.875
 30
0.0
  0
SPLINE
  5
18E
330
1F
100
AcDbEntity
  8
0
 62
     7
100
AcDbSpline
210
0.0
220
0.0
230
1.0
 70
     8
 71
     3
 72
     8
 73
     4
 74
     0
 42
0.000000001
 43
0.0000001
 40
0.0
 40
0.0
 40
0.0
 40
0.0
 40
1.0
 40
1.0
 40
1.0
 40
1.0
 10
624.75
 20
163.875
 30
0.0
 10
624.75
 20
164.76786
 30
0.0
 10
625.83333
 20
165.0
 30
0.0
 10
630.0
 20
165.0
 30
0.0
  0
SPLINE
  5
18F
330
1F
100
AcDbEntity
  8
0
 62
     7
100
AcDbSpline
210
0.0
220
0.0
230
1.0
 70
     8
 71
     3
 72
     8
 73
     4
 74
     0
 42
0.000000001
 43
0.0000001
 40
0.0
 40
0.0
 40
0.0
 40
0.0
 40
1.0
 40
1.0
 40
1.0
 40
1.0
 10
630.0
 20
165.0
 30
0.0
 10
635.12196
 20
165.0
 30
0.0
 10
635.25
 20
164.953575
 30
0.0
 10
635.25
 20
163.09512
 30
0.0
  0
SPLINE
  5
190
330
1F
100
AcDbEntity
  8
0
 62
     7
100
AcDbSpline
210
0.0
220
0.0
230
1.0
 70
     8
 71
     3
 72
     8
 73
     4
 74
     0
 42
0.000000001
 43
0.0000001
 40
0.0
 40
0.0
 40
0.0
 40
0.0
 40
1.0
 40
1.0
 40
1.0
 40
1.0
 10
635.25
 20
163.09512
 30
0.0
 10
635.25
 20
162.047437
 30
0.0
 10
634.5552
 20
159.828323
 30
0.0
 10
633.705997
 20
158.16375
 30
0.0
  0
SPLINE
  5
191
330
1F
100
AcDbEntity
  8
0
 62
     7
100
AcDbSpline
210
0.0
220
0.0
230
1.0
 70
     8
 71
     3
 72
     8
 73
     4
 74
     0
 42
0.000000001
 43
0.0000001
 40
0.0
 40
0.0
 40
0.0
 40
0.0
 40
1.0
 40
1.0
 40
1.0
 40
1.0
 10
633.705997
 20
158.16375
 30
0.0
 10
630.966878
 20
152.794628
 30
0.0
 10
623.260545
 20
150.745305
 30
0.0
 10
616.81605
 20
153.672248
 30
0.0
  0
LWPOLYLINE
  5
192
330
1F
100
AcDbEntity
  8
0
 62
     7
100
AcDbPolyline
 90
        2
 70
     1
 43
0.0
 10
565.06605
 20
153.672248
 10
565.06605
 20
153.672248
  0
SPLINE
  5
193
330
1F
100
AcDbEntity
  8
0
 62
     7
100
AcDbSpline
210
0.0
220
0.0
230
1.0
 70
     8
 71
     3
 72
     8
 73
     4
 74
     0
 42
0.000000001
 43
0.0000001
 40
0.0
 40
0.0
 40
0.0
 40
0.0
 40
1.0
 40
1.0
 40
1.0
 40
1.0
 10
79.5
 20
165.375
 30
0.0
 10
79.5
 20
175.875
 30
0.0
 10
79.670453
 20
177.75
 30
0.0
 10
80.625
 20
177.75
 30
0.0
  0
SPLINE
  5
194
330
1F
100
AcDbEntity
  8
0
 62
     7
100
AcDbSpline
210
0.0
220
0.0
230
1.0
 70
     8
 71
     3
 72
     8
 73
     4
 74
     0
 42
0.000000001
 43
0.0000001
 40
0.0
 40
0.0
 40
0.0
 40
0.0
 40
1.0
 40
1.0
 40
1.0
 40
1.0
 10
80.625
 20
177.75
 30
0.0
 10
81.579547
 20
177.75
 30
0.0
 10
81.75
 20
175.875
 30
0.0
 10
81.75
 20
165.375
 30
0.0
  0
SPLINE
  5
195
330
1F
100
AcDbEntity
  8
0
 62
     7
100
AcDbSpline
210
0.0
220
0.0
230
1.0
 70
     8
 71
     3
 72
     8
 73
     4
 74
     0
 42
0.000000001
 43
0.0000001
 40
0.0
 40
0.0
 40
0.0
 40
0.0
 40
1.0
 40
1.0
 40
1.0
 40
1.0
 10
81.75
 20
165.375
 30
0.0
 10
81.75
 20
154.875
 30
0.0
 10
81.579547
 20
153.0
 30
0.0
 10
80.625
 20
153.0
 30
0.0
  0
SPLINE
  5
196
330
1F
100
AcDbEntity
  8
0
 62
     7
100
AcDbSpline
210
0.0
220
0.0
230
1.0
 70
     8
 71
     3
 72
     8
 73
     4
 74
     0
 42
0.000000001
 43
0.0000001
 40
0.0
 40
0.0
 40
0.0
 40
0.0
 40
1.0
 40
1.0
 40
1.0
 40
1.0
 10
80.625
 20
153.0
 30
0.0
 10
79.670453
 20
153.0
 30
0.0
 10
79.5
 20
154.875
 30
0.0
 10
79.5
 20
165.375
 30
0.0
  0
LWPOLYLINE
  5
197
330
1F
100
AcDbEntity
  8
0
 62
     7
100
AcDbPolyline
 90
        2
 70
     1
 43
0.0
 10
616.81605
 20
153.672248
 10
616.81605
 20
153.672248
  0
SPLINE
  5
198
330
1F
100
AcDbEntity
  8
0
 62
     7
100
AcDbSpline
210
0.0
220
0.0
230
1.0
 70
     8
 71
     3
 72
     8
 73
     4
 74
     0
 42
0.000000001
 43
0.0000001
 40
0.0
 40
0.0
 40
0.0
 40
0.0
 40
1.0
 40
1.0
 40
1.0
 40
1.0
 10
87.75
 20
165.375
 30
0.0
 10
87.75
 20
172.18125
 30
0.0
 10
87.889132
 20
177.75
 30
0.0
 10
88.05918
 20
177.75
 30
0.0
  0
SPLINE
  5
199
330
1F
100
AcDbEntity
  8
0
 62
     7
100
AcDbSpline
210
0.0
220
0.0
230
1.0
 70
     8
 71
     3
 72
     8
 73
     4
 74
     0
 42
0.000000001
 43
0.0000001
 40
0.0
 40
0.0
 40
0.0
 40
0.0
 40
1.0
 40
1.0
 40
1.0
 40
1.0
 10
88.05918
 20
177.75
 30
0.0
 10
88.229235
 20
177.75
 30
0.0
 10
92.02611
 20
173.505405
 30
0.0
 10
96.49668
 20
168.317565
 30
0.0
  0
LWPOLYLINE
  5
19A
330
1F
100
AcDbEntity
  8
0
 62
     7
100
AcDbPolyline
 90
        2
 70
     1
 43
0.0
 10
79.5
 20
165.375
 10
79.5
 20
165.375
  0
SPLINE
  5
19B
330
1F
100
AcDbEntity
  8
0
 62
     7
100
AcDbSpline
210
0.0
220
0.0
230
1.0
 70
     8
 71
     3
 72
     8
 73
     4
 74
     0
 42
0.000000001
 43
0.0000001
 40
0.0
 40
0.0
 40
0.0
 40
0.0
 40
1.0
 40
1.0
 40
1.0
 40
1.0
 10
104.83491
 20
168.317565
 30
0.0
 10
105.006352
 20
176.021565
 30
0.0
 10
105.246855
 20
177.75
 30
0.0
 10
106.14741
 20
177.75
 30
0.0
  0
SPLINE
  5
19C
330
1F
100
AcDbEntity
  8
0
 62
     7
100
AcDbSpline
210
0.0
220
0.0
230
1.0
 70
     8
 71
     3
 72
     8
 73
     4
 74
     0
 42
0.000000001
 43
0.0000001
 40
0.0
 40
0.0
 40
0.0
 40
0.0
 40
1.0
 40
1.0
 40
1.0
 40
1.0
 10
106.14741
 20
177.75
 30
0.0
 10
107.072985
 20
177.75
 30
0.0
 10
107.25
 20
175.763227
 30
0.0
 10
107.25
 20
165.375
 30
0.0
  0
SPLINE
  5
19D
330
1F
100
AcDbEntity
  8
0
 62
     7
100
AcDbSpline
210
0.0
220
0.0
230
1.0
 70
     8
 71
     3
 72
     8
 73
     4
 74
     0
 42
0.000000001
 43
0.0000001
 40
0.0
 40
0.0
 40
0.0
 40
0.0
 40
1.0
 40
1.0
 40
1.0
 40
1.0
 10
107.25
 20
165.375
 30
0.0
 10
107.25
 20
158.56875
 30
0.0
 10
107.128253
 20
153.0
 30
0.0
 10
106.97946
 20
153.0
 30
0.0
  0
SPLINE
  5
19E
330
1F
100
AcDbEntity
  8
0
 62
     7
100
AcDbSpline
210
0.0
220
0.0
230
1.0
 70
     8
 71
     3
 72
     8
 73
     4
 74
     0
 42
0.000000001
 43
0.0000001
 40
0.0
 40
0.0
 40
0.0
 40
0.0
 40
1.0
 40
1.0
 40
1.0
 40
1.0
 10
106.97946
 20
153.0
 30
0.0
 10
106.83066
 20
153.0
 30
0.0
 10
103.202535
 20
157.048395
 30
0.0
 10
98.91696
 20
161.99643
 30
0.0
  0
SPLINE
  5
19F
330
1F
100
AcDbEntity
  8
0
 62
     7
100
AcDbSpline
210
0.0
220
0.0
230
1.0
 70
     8
 71
     3
 72
     8
 73
     4
 74
     0
 42
0.000000001
 43
0.0000001
 40
0.0
 40
0.0
 40
0.0
 40
0.0
 40
1.0
 40
1.0
 40
1.0
 40
1.0
 10
98.91696
 20
161.99643
 30
0.0
 10
94.631378
 20
166.944465
 30
0.0
 10
90.871875
 20
170.994465
 30
0.0
 10
90.5625
 20
170.99643
 30
0.0
  0
SPLINE
  5
1A0
330
1F
100
AcDbEntity
  8
0
 62
     7
100
AcDbSpline
210
0.0
220
0.0
230
1.0
 70
     8
 71
     3
 72
     8
 73
     4
 74
     0
 42
0.000000001
 43
0.0000001
 40
0.0
 40
0.0
 40
0.0
 40
0.0
 40
1.0
 40
1.0
 40
1.0
 40
1.0
 10
90.5625
 20
170.99643
 30
0.0
 10
90.253125
 20
170.998395
 30
0.0
 10
90.0
 20
166.95
 30
0.0
 10
90.0
 20
162.0
 30
0.0
  0
SPLINE
  5
1A1
330
1F
100
AcDbEntity
  8
0
 62
     7
100
AcDbSpline
210
0.0
220
0.0
230
1.0
 70
     8
 71
     3
 72
     8
 73
     4
 74
     0
 42
0.000000001
 43
0.0000001
 40
0.0
 40
0.0
 40
0.0
 40
0.0
 40
1.0
 40
1.0
 40
1.0
 40
1.0
 10
90.0
 20
162.0
 30
0.0
 10
90.0
 20
154.5
 30
0.0
 10
89.8125
 20
153.0
 30
0.0
 10
88.875
 20
153.0
 30
0.0
  0
SPLINE
  5
1A2
330
1F
100
AcDbEntity
  8
0
 62
     7
100
AcDbSpline
210
0.0
220
0.0
230
1.0
 70
     8
 71
     3
 72
     8
 73
     4
 74
     0
 42
0.000000001
 43
0.0000001
 40
0.0
 40
0.0
 40
0.0
 40
0.0
 40
1.0
 40
1.0
 40
1.0
 40
1.0
 10
88.875
 20
153.0
 30
0.0
 10
87.920453
 20
153.0
 30
0.0
 10
87.75
 20
154.875
 30
0.0
 10
87.75
 20
165.375
 30
0.0
  0
LWPOLYLINE
  5
1A3
330
1F
100
AcDbEntity
  8
0
 62
     7
100
AcDbPolyline
 90
        3
 70
     0
 43
0.0
 10
96.49668
 20
168.317565
 10
104.625
 20
158.88513
 10
104.83491
 20
168.317565
  0
SPLINE
  5
1A4
330
1F
100
AcDbEntity
  8
0
 62
     7
100
AcDbSpline
210
0.0
220
0.0
230
1.0
 70
     8
 71
     3
 72
     8
 73
     4
 74
     0
 42
0.000000001
 43
0.0000001
 40
0.0
 40
0.0
 40
0.0
 40
0.0
 40
1.0
 40
1.0
 40
1.0
 40
1.0
 10
117.508005
 20
162.575617
 30
0.0
 10
110.52051
 20
178.551772
 30
0.0
 10
110.803207
 20
177.75
 30
0.0
 10
112.157603
 20
177.75
 30
0.0
  0
SPLINE
  5
1A5
330
1F
100
AcDbEntity
  8
0
 62
     7
100
AcDbSpline
210
0.0
220
0.0
230
1.0
 70
     8
 71
     3
 72
     8
 73
     4
 74
     0
 42
0.000000001
 43
0.0000001
 40
0.0
 40
0.0
 40
0.0
 40
0.0
 40
1.0
 40
1.0
 40
1.0
 40
1.0
 10
112.157603
 20
177.75
 30
0.0
 10
112.904258
 20
177.75
 30
0.0
 10
114.28143
 20
175.62249
 30
0.0
 10
115.92012
 20
171.9375
 30
0.0
  0
SPLINE
  5
1A6
330
1F
100
AcDbEntity
  8
0
 62
     7
100
AcDbSpline
210
0.0
220
0.0
230
1.0
 70
     8
 71
     3
 72
     8
 73
     4
 74
     0
 42
0.000000001
 43
0.0000001
 40
0.0
 40
0.0
 40
0.0
 40
0.0
 40
1.0
 40
1.0
 40
1.0
 40
1.0
 10
115.92012
 20
171.9375
 30
0.0
 10
117.341753
 20
168.740625
 30
0.0
 10
119.287358
 20
164.466503
 30
0.0
 10
120.243683
 20
162.439447
 30
0.0
  0
LWPOLYLINE
  5
1A7
330
1F
100
AcDbEntity
  8
0
 62
     7
100
AcDbPolyline
 90
        2
 70
     1
 43
0.0
 10
87.75
 20
165.375
 10
87.75
 20
165.375
  0
SPLINE
  5
1A8
330
1F
100
AcDbEntity
  8
0
 62
     7
100
AcDbSpline
210
0.0
220
0.0
230
1.0
 70
     8
 71
     3
 72
     8
 73
     4
 74
     0
 42
0.000000001
 43
0.0000001
 40
0.0
 40
0.0
 40
0.0
 40
0.0
 40
1.0
 40
1.0
 40
1.0
 40
1.0
 10
126.011678
 20
167.956297
 30
0.0
 10
129.550875
 20
176.039572
 30
0.0
 10
131.299073
 20
178.700932
 30
0.0
 10
132.367673
 20
177.632325
 30
0.0
  0
SPLINE
  5
1A9
330
1F
100
AcDbEntity
  8
0
 62
     7
100
AcDbSpline
210
0.0
220
0.0
230
1.0
 70
     8
 71
     3
 72
     8
 73
     4
 74
     0
 42
0.000000001
 43
0.0000001
 40
0.0
 40
0.0
 40
0.0
 40
0.0
 40
1.0
 40
1.0
 40
1.0
 40
1.0
 10
132.367673
 20
177.632325
 30
0.0
 10
132.6417
 20
177.358305
 30
0.0
 10
122.678753
 20
153.928747
 30
0.0
 10
121.99926
 20
153.249262
 30
0.0
  0
SPLINE
  5
1AA
330
1F
100
AcDbEntity
  8
0
 62
     7
100
AcDbSpline
210
0.0
220
0.0
230
1.0
 70
     8
 71
     3
 72
     8
 73
     4
 74
     0
 42
0.000000001
 43
0.0000001
 40
0.0
 40
0.0
 40
0.0
 40
0.0
 40
1.0
 40
1.0
 40
1.0
 40
1.0
 10
121.99926
 20
153.249262
 30
0.0
 10
121.841543
 20
153.091545
 30
0.0
 10
119.82048
 20
157.288402
 30
0.0
 10
117.508005
 20
162.575617
 30
0.0
  0
LWPOLYLINE
  5
1AB
330
1F
100
AcDbEntity
  8
0
 62
     7
100
AcDbPolyline
 90
        3
 70
     0
 43
0.0
 10
120.243683
 20
162.439447
 10
121.982475
 20
158.753895
 10
126.011678
 20
167.956297
  0
SPLINE
  5
1AC
330
1F
100
AcDbEntity
  8
0
 62
     7
100
AcDbSpline
210
0.0
220
0.0
230
1.0
 70
     8
 71
     3
 72
     8
 73
     4
 74
     0
 42
0.000000001
 43
0.0000001
 40
0.0
 40
0.0
 40
0.0
 40
0.0
 40
1.0
 40
1.0
 40
1.0
 40
1.0
 10
165.0
 20
165.375
 30
0.0
 10
165.0
 20
175.875
 30
0.0
 10
165.170453
 20
177.75
 30
0.0
 10
166.125
 20
177.75
 30
0.0
  0
SPLINE
  5
1AD
330
1F
100
AcDbEntity
  8
0
 62
     7
100
AcDbSpline
210
0.0
220
0.0
230
1.0
 70
     8
 71
     3
 72
     8
 73
     4
 74
     0
 42
0.000000001
 43
0.0000001
 40
0.0
 40
0.0
 40
0.0
 40
0.0
 40
1.0
 40
1.0
 40
1.0
 40
1.0
 10
166.125
 20
177.75
 30
0.0
 10
167.075003
 20
177.75
 30
0.0
 10
167.25
 20
176.000002
 30
0.0
 10
167.25
 20
166.5
 30
0.0
  0
LWPOLYLINE
  5
1AE
330
1F
100
AcDbEntity
  8
0
 62
     7
100
AcDbPolyline
 90
        2
 70
     1
 43
0.0
 10
117.508005
 20
162.575617
 10
117.508005
 20
162.575617
  0
SPLINE
  5
1AF
330
1F
100
AcDbEntity
  8
0
 62
     7
100
AcDbSpline
210
0.0
220
0.0
230
1.0
 70
     8
 71
     3
 72
     8
 73
     4
 74
     0
 42
0.000000001
 43
0.0000001
 40
0.0
 40
0.0
 40
0.0
 40
0.0
 40
1.0
 40
1.0
 40
1.0
 40
1.0
 10
172.125
 20
155.25
 30
0.0
 10
175.958332
 20
155.25
 30
0.0
 10
177.0
 20
155.009617
 30
0.0
 10
177.0
 20
154.125
 30
0.0
  0
SPLINE
  5
1B0
330
1F
100
AcDbEntity
  8
0
 62
     7
100
AcDbSpline
210
0.0
220
0.0
230
1.0
 70
     8
 71
     3
 72
     8
 73
     4
 74
     0
 42
0.000000001
 43
0.0000001
 40
0.0
 40
0.0
 40
0.0
 40
0.0
 40
1.0
 40
1.0
 40
1.0
 40
1.0
 10
177.0
 20
154.125
 30
0.0
 10
177.0
 20
153.218752
 30
0.0
 10
175.83333
 20
153.0
 30
0.0
 10
171.0
 20
153.0
 30
0.0
  0
LWPOLYLINE
  5
1B1
330
1F
100
AcDbEntity
  8
0
 62
     7
100
AcDbPolyline
 90
        3
 70
     0
 43
0.0
 10
167.25
 20
166.5
 10
167.25
 20
155.25
 10
172.125
 20
155.25
  0
SPLINE
  5
1B2
330
1F
100
AcDbEntity
  8
0
 62
     7
100
AcDbSpline
210
0.0
220
0.0
230
1.0
 70
     8
 71
     3
 72
     8
 73
     4
 74
     0
 42
0.000000001
 43
0.0000001
 40
0.0
 40
0.0
 40
0.0
 40
0.0
 40
1.0
 40
1.0
 40
1.0
 40
1.0
 10
179.764005
 20
165.08829
 30
0.0
 10
176.95296
 20
171.723885
 30
0.0
 10
174.829027
 20
177.329033
 30
0.0
 10
175.044158
 20
177.544162
 30
0.0
  0
SPLINE
  5
1B3
330
1F
100
AcDbEntity
  8
0
 62
     7
100
AcDbSpline
210
0.0
220
0.0
230
1.0
 70
     8
 71
     3
 72
     8
 73
     4
 74
     0
 42
0.000000001
 43
0.0000001
 40
0.0
 40
0.0
 40
0.0
 40
0.0
 40
1.0
 40
1.0
 40
1.0
 40
1.0
 10
175.044158
 20
177.544162
 30
0.0
 10
176.185252
 20
178.685258
 30
0.0
 10
177.737018
 20
176.270212
 30
0.0
 10
181.125
 20
168.0804
 30
0.0
  0
SPLINE
  5
1B4
330
1F
100
AcDbEntity
  8
0
 62
     7
100
AcDbSpline
210
0.0
220
0.0
230
1.0
 70
     8
 71
     3
 72
     8
 73
     4
 74
     0
 42
0.000000001
 43
0.0000001
 40
0.0
 40
0.0
 40
0.0
 40
0.0
 40
1.0
 40
1.0
 40
1.0
 40
1.0
 10
181.125
 20
168.0804
 30
0.0
 10
183.1875
 20
163.094693
 30
0.0
 10
185.04375
 20
159.015472
 30
0.0
 10
185.25
 20
159.015472
 30
0.0
  0
SPLINE
  5
1B5
330
1F
100
AcDbEntity
  8
0
 62
     7
100
AcDbSpline
210
0.0
220
0.0
230
1.0
 70
     8
 71
     3
 72
     8
 73
     4
 74
     0
 42
0.000000001
 43
0.0000001
 40
0.0
 40
0.0
 40
0.0
 40
0.0
 40
1.0
 40
1.0
 40
1.0
 40
1.0
 10
185.25
 20
159.015472
 30
0.0
 10
185.45625
 20
159.015472
 30
0.0
 10
187.3125
 20
163.094692
 30
0.0
 10
189.375
 20
168.0804
 30
0.0
  0
SPLINE
  5
1B6
330
1F
100
AcDbEntity
  8
0
 62
     7
100
AcDbSpline
210
0.0
220
0.0
230
1.0
 70
     8
 71
     3
 72
     8
 73
     4
 74
     0
 42
0.000000001
 43
0.0000001
 40
0.0
 40
0.0
 40
0.0
 40
0.0
 40
1.0
 40
1.0
 40
1.0
 40
1.0
 10
189.375
 20
168.0804
 30
0.0
 10
192.762983
 20
176.270213
 30
0.0
 10
194.314747
 20
178.685258
 30
0.0
 10
195.455843
 20
177.544162
 30
0.0
  0
SPLINE
  5
1B7
330
1F
100
AcDbEntity
  8
0
 62
     7
100
AcDbSpline
210
0.0
220
0.0
230
1.0
 70
     8
 71
     3
 72
     8
 73
     4
 74
     0
 42
0.000000001
 43
0.0000001
 40
0.0
 40
0.0
 40
0.0
 40
0.0
 40
1.0
 40
1.0
 40
1.0
 40
1.0
 10
195.455843
 20
177.544162
 30
0.0
 10
195.884595
 20
177.115402
 30
0.0
 10
185.857215
 20
153.023558
 30
0.0
 10
185.25
 20
153.023558
 30
0.0
  0
SPLINE
  5
1B8
330
1F
100
AcDbEntity
  8
0
 62
     7
100
AcDbSpline
210
0.0
220
0.0
230
1.0
 70
     8
 71
     3
 72
     8
 73
     4
 74
     0
 42
0.000000001
 43
0.0000001
 40
0.0
 40
0.0
 40
0.0
 40
0.0
 40
1.0
 40
1.0
 40
1.0
 40
1.0
 10
185.25
 20
153.023558
 30
0.0
 10
185.04375
 20
153.023558
 30
0.0
 10
182.57505
 20
158.452688
 30
0.0
 10
179.764005
 20
165.08829
 30
0.0
  0
LWPOLYLINE
  5
1B9
330
1F
100
AcDbEntity
  8
0
 62
     7
100
AcDbPolyline
 90
        3
 70
     0
 43
0.0
 10
171.0
 20
153.0
 10
165.0
 20
153.0
 10
165.0
 20
165.375
  0
LWPOLYLINE
  5
1BA
330
1F
100
AcDbEntity
  8
0
 62
     7
100
AcDbPolyline
 90
        2
 70
     1
 43
0.0
 10
179.764005
 20
165.08829
 10
179.764005
 20
165.08829
  0
SPLINE
  5
1BB
330
1F
100
AcDbEntity
  8
0
 62
     7
100
AcDbSpline
210
0.0
220
0.0
230
1.0
 70
     8
 71
     3
 72
     8
 73
     4
 74
     0
 42
0.000000001
 43
0.0000001
 40
0.0
 40
0.0
 40
0.0
 40
0.0
 40
1.0
 40
1.0
 40
1.0
 40
1.0
 10
207.0
 20
177.75
 30
0.0
 10
212.499998
 20
177.75
 30
0.0
 10
213.75
 20
177.541665
 30
0.0
 10
213.75
 20
176.625
 30
0.0
  0
SPLINE
  5
1BC
330
1F
100
AcDbEntity
  8
0
 62
     7
100
AcDbSpline
210
0.0
220
0.0
230
1.0
 70
     8
 71
     3
 72
     8
 73
     4
 74
     0
 42
0.000000001
 43
0.0000001
 40
0.0
 40
0.0
 40
0.0
 40
0.0
 40
1.0
 40
1.0
 40
1.0
 40
1.0
 10
213.75
 20
176.625
 30
0.0
 10
213.75
 20
175.725
 30
0.0
 10
212.625
 20
175.5
 30
0.0
 10
208.125
 20
175.5
 30
0.0
  0
LWPOLYLINE
  5
1BD
330
1F
100
AcDbEntity
  8
0
 62
     7
100
AcDbPolyline
 90
        3
 70
     0
 43
0.0
 10
200.25
 20
165.375
 10
200.25
 20
177.75
 10
207.0
 20
177.75
  0
SPLINE
  5
1BE
330
1F
100
AcDbEntity
  8
0
 62
     7
100
AcDbSpline
210
0.0
220
0.0
230
1.0
 70
     8
 71
     3
 72
     8
 73
     4
 74
     0
 42
0.000000001
 43
0.0000001
 40
0.0
 40
0.0
 40
0.0
 40
0.0
 40
1.0
 40
1.0
 40
1.0
 40
1.0
 10
208.125
 20
167.25
 30
0.0
 10
212.625
 20
167.25
 30
0.0
 10
213.75
 20
167.025
 30
0.0
 10
213.75
 20
166.125
 30
0.0
  0
SPLINE
  5
1BF
330
1F
100
AcDbEntity
  8
0
 62
     7
100
AcDbSpline
210
0.0
220
0.0
230
1.0
 70
     8
 71
     3
 72
     8
 73
     4
 74
     0
 42
0.000000001
 43
0.0000001
 40
0.0
 40
0.0
 40
0.0
 40
0.0
 40
1.0
 40
1.0
 40
1.0
 40
1.0
 10
213.75
 20
166.125
 30
0.0
 10
213.75
 20
165.225
 30
0.0
 10
212.625
 20
165.0
 30
0.0
 10
208.125
 20
165.0
 30
0.0
  0
LWPOLYLINE
  5
1C0
330
1F
100
AcDbEntity
  8
0
 62
     7
100
AcDbPolyline
 90
        5
 70
     0
 43
0.0
 10
208.125
 20
175.5
 10
202.5
 20
175.5
 10
202.5
 20
171.375
 10
202.5
 20
167.25
 10
208.125
 20
167.25
  0
SPLINE
  5
1C1
330
1F
100
AcDbEntity
  8
0
 62
     7
100
AcDbSpline
210
0.0
220
0.0
230
1.0
 70
     8
 71
     3
 72
     8
 73
     4
 74
     0
 42
0.000000001
 43
0.0000001
 40
0.0
 40
0.0
 40
0.0
 40
0.0
 40
1.0
 40
1.0
 40
1.0
 40
1.0
 10
208.125
 20
155.25
 30
0.0
 10
212.625
 20
155.25
 30
0.0
 10
213.75
 20
155.025
 30
0.0
 10
213.75
 20
154.125
 30
0.0
  0
SPLINE
  5
1C2
330
1F
100
AcDbEntity
  8
0
 62
     7
100
AcDbSpline
210
0.0
220
0.0
230
1.0
 70
     8
 71
     3
 72
     8
 73
     4
 74
     0
 42
0.000000001
 43
0.0000001
 40
0.0
 40
0.0
 40
0.0
 40
0.0
 40
1.0
 40
1.0
 40
1.0
 40
1.0
 10
213.75
 20
154.125
 30
0.0
 10
213.75
 20
153.208335
 30
0.0
 10
212.499998
 20
153.0
 30
0.0
 10
207.0
 20
153.0
 30
0.0
  0
LWPOLYLINE
  5
1C3
330
1F
100
AcDbEntity
  8
0
 62
     7
100
AcDbPolyline
 90
        5
 70
     0
 43
0.0
 10
208.125
 20
165.0
 10
202.5
 20
165.0
 10
202.5
 20
160.125
 10
202.5
 20
155.25
 10
208.125
 20
155.25
  0
SPLINE
  5
1C4
330
1F
100
AcDbEntity
  8
0
 62
     7
100
AcDbSpline
210
0.0
220
0.0
230
1.0
 70
     8
 71
     3
 72
     8
 73
     4
 74
     0
 42
0.000000001
 43
0.0000001
 40
0.0
 40
0.0
 40
0.0
 40
0.0
 40
1.0
 40
1.0
 40
1.0
 40
1.0
 10
217.5
 20
153.634088
 30
0.0
 10
217.5
 20
155.277165
 30
0.0
 10
220.653068
 20
177.403065
 30
0.0
 10
220.926128
 20
177.676132
 30
0.0
  0
SPLINE
  5
1C5
330
1F
100
AcDbEntity
  8
0
 62
     7
100
AcDbSpline
210
0.0
220
0.0
230
1.0
 70
     8
 71
     3
 72
     8
 73
     4
 74
     0
 42
0.000000001
 43
0.0000001
 40
0.0
 40
0.0
 40
0.0
 40
0.0
 40
1.0
 40
1.0
 40
1.0
 40
1.0
 10
220.926128
 20
177.676132
 30
0.0
 10
221.097098
 20
177.847103
 30
0.0
 10
223.48404
 20
173.314148
 30
0.0
 10
226.230435
 20
167.602905
 30
0.0
  0
LWPOLYLINE
  5
1C6
330
1F
100
AcDbEntity
  8
0
 62
     7
100
AcDbPolyline
 90
        3
 70
     0
 43
0.0
 10
207.0
 20
153.0
 10
200.25
 20
153.0
 10
200.25
 20
165.375
  0
SPLINE
  5
1C7
330
1F
100
AcDbEntity
  8
0
 62
     7
100
AcDbSpline
210
0.0
220
0.0
230
1.0
 70
     8
 71
     3
 72
     8
 73
     4
 74
     0
 42
0.000000001
 43
0.0000001
 40
0.0
 40
0.0
 40
0.0
 40
0.0
 40
1.0
 40
1.0
 40
1.0
 40
1.0
 10
243.074355
 20
168.75
 30
0.0
 10
243.781117
 20
163.59375
 30
0.0
 10
244.55331
 20
157.940625
 30
0.0
 10
244.79034
 20
156.1875
 30
0.0
  0
SPLINE
  5
1C8
330
1F
100
AcDbEntity
  8
0
 62
     7
100
AcDbSpline
210
0.0
220
0.0
230
1.0
 70
     8
 71
     3
 72
     8
 73
     4
 74
     0
 42
0.000000001
 43
0.0000001
 40
0.0
 40
0.0
 40
0.0
 40
0.0
 40
1.0
 40
1.0
 40
1.0
 40
1.0
 10
244.79034
 20
156.1875
 30
0.0
 10
245.12739
 20
153.694627
 30
0.0
 10
244.982385
 20
153.0
 30
0.0
 10
244.12494
 20
153.0
 30
0.0
  0
SPLINE
  5
1C9
330
1F
100
AcDbEntity
  8
0
 62
     7
100
AcDbSpline
210
0.0
220
0.0
230
1.0
 70
     8
 71
     3
 72
     8
 73
     4
 74
     0
 42
0.000000001
 43
0.0000001
 40
0.0
 40
0.0
 40
0.0
 40
0.0
 40
1.0
 40
1.0
 40
1.0
 40
1.0
 10
244.12494
 20
153.0
 30
0.0
 10
242.858002
 20
153.0
 30
0.0
 10
242.629582
 20
153.87669
 30
0.0
 10
241.407398
 20
163.430138
 30
0.0
  0
LWPOLYLINE
  5
1CA
330
1F
100
AcDbEntity
  8
0
 62
     7
100
AcDbPolyline
 90
        5
 70
     0
 43
0.0
 10
226.230435
 20
167.602905
 10
231.22389
 20
157.218825
 10
236.506613
 20
167.671912
 10
241.789327
 20
178.125
 10
243.074355
 20
168.75
  0
SPLINE
  5
1CB
330
1F
100
AcDbEntity
  8
0
 62
     7
100
AcDbSpline
210
0.0
220
0.0
230
1.0
 70
     8
 71
     3
 72
     8
 73
     4
 74
     0
 42
0.000000001
 43
0.0000001
 40
0.0
 40
0.0
 40
0.0
 40
0.0
 40
1.0
 40
1.0
 40
1.0
 40
1.0
 10
236.121307
 20
161.742638
 30
0.0
 10
233.710372
 20
156.934185
 30
0.0
 10
231.48741
 20
153.008962
 30
0.0
 10
231.181395
 20
153.019927
 30
0.0
  0
SPLINE
  5
1CC
330
1F
100
AcDbEntity
  8
0
 62
     7
100
AcDbSpline
210
0.0
220
0.0
230
1.0
 70
     8
 71
     3
 72
     8
 73
     4
 74
     0
 42
0.000000001
 43
0.0000001
 40
0.0
 40
0.0
 40
0.0
 40
0.0
 40
1.0
 40
1.0
 40
1.0
 40
1.0
 10
231.181395
 20
153.019927
 30
0.0
 10
230.87538
 20
153.030877
 30
0.0
 10
228.799035
 20
156.914288
 30
0.0
 10
226.56729
 20
161.649713
 30
0.0
  0
SPLINE
  5
1CD
330
1F
100
AcDbEntity
  8
0
 62
     7
100
AcDbSpline
210
0.0
220
0.0
230
1.0
 70
     8
 71
     3
 72
     8
 73
     4
 74
     0
 42
0.000000001
 43
0.0000001
 40
0.0
 40
0.0
 40
0.0
 40
0.0
 40
1.0
 40
1.0
 40
1.0
 40
1.0
 10
226.56729
 20
161.649713
 30
0.0
 10
224.335553
 20
166.385145
 30
0.0
 10
222.394463
 20
170.14446
 30
0.0
 10
222.253762
 20
170.00376
 30
0.0
  0
SPLINE
  5
1CE
330
1F
100
AcDbEntity
  8
0
 62
     7
100
AcDbSpline
210
0.0
220
0.0
230
1.0
 70
     8
 71
     3
 72
     8
 73
     4
 74
     0
 42
0.000000001
 43
0.0000001
 40
0.0
 40
0.0
 40
0.0
 40
0.0
 40
1.0
 40
1.0
 40
1.0
 40
1.0
 10
222.253762
 20
170.00376
 30
0.0
 10
222.030382
 20
169.78038
 30
0.0
 10
219.80019
 20
155.054753
 30
0.0
 10
219.76374
 20
153.5625
 30
0.0
  0
SPLINE
  5
1CF
330
1F
100
AcDbEntity
  8
0
 62
     7
100
AcDbSpline
210
0.0
220
0.0
230
1.0
 70
     8
 71
     3
 72
     8
 73
     4
 74
     0
 42
0.000000001
 43
0.0000001
 40
0.0
 40
0.0
 40
0.0
 40
0.0
 40
1.0
 40
1.0
 40
1.0
 40
1.0
 10
219.76374
 20
153.5625
 30
0.0
 10
219.744637
 20
152.780602
 30
0.0
 10
217.5
 20
152.851582
 30
0.0
 10
217.5
 20
153.634088
 30
0.0
  0
LWPOLYLINE
  5
1D0
330
1F
100
AcDbEntity
  8
0
 62
     7
100
AcDbPolyline
 90
        3
 70
     0
 43
0.0
 10
241.407398
 20
163.430138
 10
240.504825
 20
170.485267
 10
236.121307
 20
161.742638
  0
LWPOLYLINE
  5
1D1
330
1F
100
AcDbEntity
  8
0
 62
     7
100
AcDbPolyline
 90
        2
 70
     1
 43
0.0
 10
217.5
 20
153.634088
 10
217.5
 20
153.634088
  0
SPLINE
  5
1D2
330
1F
100
AcDbEntity
  8
0
 62
     7
100
AcDbSpline
210
0.0
220
0.0
230
1.0
 70
     8
 71
     3
 72
     8
 73
     4
 74
     0
 42
0.000000001
 43
0.0000001
 40
0.0
 40
0.0
 40
0.0
 40
0.0
 40
1.0
 40
1.0
 40
1.0
 40
1.0
 10
256.875
 20
177.75
 30
0.0
 10
262.708335
 20
177.75
 30
0.0
 10
264.0
 20
177.546052
 30
0.0
 10
264.0
 20
176.625
 30
0.0
  0
SPLINE
  5
1D3
330
1F
100
AcDbEntity
  8
0
 62
     7
100
AcDbSpline
210
0.0
220
0.0
230
1.0
 70
     8
 71
     3
 72
     8
 73
     4
 74
     0
 42
0.000000001
 43
0.0000001
 40
0.0
 40
0.0
 40
0.0
 40
0.0
 40
1.0
 40
1.0
 40
1.0
 40
1.0
 10
264.0
 20
176.625
 30
0.0
 10
264.0
 20
175.718752
 30
0.0
 10
262.83333
 20
175.5
 30
0.0
 10
258.0
 20
175.5
 30
0.0
  0
LWPOLYLINE
  5
1D4
330
1F
100
AcDbEntity
  8
0
 62
     7
100
AcDbPolyline
 90
        3
 70
     0
 43
0.0
 10
249.75
 20
165.375
 10
249.75
 20
177.75
 10
256.875
 20
177.75
  0
SPLINE
  5
1D5
330
1F
100
AcDbEntity
  8
0
 62
     7
100
AcDbSpline
210
0.0
220
0.0
230
1.0
 70
     8
 71
     3
 72
     8
 73
     4
 74
     0
 42
0.000000001
 43
0.0000001
 40
0.0
 40
0.0
 40
0.0
 40
0.0
 40
1.0
 40
1.0
 40
1.0
 40
1.0
 10
257.625
 20
167.25
 30
0.0
 10
262.125
 20
167.25
 30
0.0
 10
263.25
 20
167.025
 30
0.0
 10
263.25
 20
166.125
 30
0.0
  0
SPLINE
  5
1D6
330
1F
100
AcDbEntity
  8
0
 62
     7
100
AcDbSpline
210
0.0
220
0.0
230
1.0
 70
     8
 71
     3
 72
     8
 73
     4
 74
     0
 42
0.000000001
 43
0.0000001
 40
0.0
 40
0.0
 40
0.0
 40
0.0
 40
1.0
 40
1.0
 40
1.0
 40
1.0
 10
263.25
 20
166.125
 30
0.0
 10
263.25
 20
165.225
 30
0.0
 10
262.125
 20
165.0
 30
0.0
 10
257.625
 20
165.0
 30
0.0
  0
LWPOLYLINE
  5
1D7
330
1F
100
AcDbEntity
  8
0
 62
     7
100
AcDbPolyline
 90
        5
 70
     0
 43
0.0
 10
258.0
 20
175.5
 10
252.0
 20
175.5
 10
252.0
 20
171.375
 10
252.0
 20
167.25
 10
257.625
 20
167.25
  0
SPLINE
  5
1D8
330
1F
100
AcDbEntity
  8
0
 62
     7
100
AcDbSpline
210
0.0
220
0.0
230
1.0
 70
     8
 71
     3
 72
     8
 73
     4
 74
     0
 42
0.000000001
 43
0.0000001
 40
0.0
 40
0.0
 40
0.0
 40
0.0
 40
1.0
 40
1.0
 40
1.0
 40
1.0
 10
257.625
 20
155.25
 30
0.0
 10
262.125
 20
155.25
 30
0.0
 10
263.25
 20
155.025
 30
0.0
 10
263.25
 20
154.125
 30
0.0
  0
SPLINE
  5
1D9
330
1F
100
AcDbEntity
  8
0
 62
     7
100
AcDbSpline
210
0.0
220
0.0
230
1.0
 70
     8
 71
     3
 72
     8
 73
     4
 74
     0
 42
0.000000001
 43
0.0000001
 40
0.0
 40
0.0
 40
0.0
 40
0.0
 40
1.0
 40
1.0
 40
1.0
 40
1.0
 10
263.25
 20
154.125
 30
0.0
 10
263.25
 20
153.208335
 30
0.0
 10
261.999998
 20
153.0
 30
0.0
 10
256.5
 20
153.0
 30
0.0
  0
LWPOLYLINE
  5
1DA
330
1F
100
AcDbEntity
  8
0
 62
     7
100
AcDbPolyline
 90
        5
 70
     0
 43
0.0
 10
257.625
 20
165.0
 10
252.0
 20
165.0
 10
252.0
 20
160.125
 10
252.0
 20
155.25
 10
257.625
 20
155.25
  0
SPLINE
  5
1DB
330
1F
100
AcDbEntity
  8
0
 62
     7
100
AcDbSpline
210
0.0
220
0.0
230
1.0
 70
     8
 71
     3
 72
     8
 73
     4
 74
     0
 42
0.000000001
 43
0.0000001
 40
0.0
 40
0.0
 40
0.0
 40
0.0
 40
1.0
 40
1.0
 40
1.0
 40
1.0
 10
268.5
 20
165.09183
 30
0.0
 10
268.5
 20
174.684225
 30
0.0
 10
268.693785
 20
177.021308
 30
0.0
 10
269.4375
 20
176.398192
 30
0.0
  0
SPLINE
  5
1DC
330
1F
100
AcDbEntity
  8
0
 62
     7
100
AcDbSpline
210
0.0
220
0.0
230
1.0
 70
     8
 71
     3
 72
     8
 73
     4
 74
     0
 42
0.000000001
 43
0.0000001
 40
0.0
 40
0.0
 40
0.0
 40
0.0
 40
1.0
 40
1.0
 40
1.0
 40
1.0
 10
269.4375
 20
176.398192
 30
0.0
 10
269.953125
 20
175.966178
 30
0.0
 10
273.58125
 20
171.906202
 30
0.0
 10
277.5
 20
167.376023
 30
0.0
  0
LWPOLYLINE
  5
1DD
330
1F
100
AcDbEntity
  8
0
 62
     7
100
AcDbPolyline
 90
        3
 70
     0
 43
0.0
 10
256.5
 20
153.0
 10
249.75
 20
153.0
 10
249.75
 20
165.375
  0
SPLINE
  5
1DE
330
1F
100
AcDbEntity
  8
0
 62
     7
100
AcDbSpline
210
0.0
220
0.0
230
1.0
 70
     8
 71
     3
 72
     8
 73
     4
 74
     0
 42
0.000000001
 43
0.0000001
 40
0.0
 40
0.0
 40
0.0
 40
0.0
 40
1.0
 40
1.0
 40
1.0
 40
1.0
 10
284.83491
 20
168.444668
 30
0.0
 10
285.006173
 20
176.036835
 30
0.0
 10
285.247807
 20
177.75
 30
0.0
 10
286.14741
 20
177.75
 30
0.0
  0
SPLINE
  5
1DF
330
1F
100
AcDbEntity
  8
0
 62
     7
100
AcDbSpline
210
0.0
220
0.0
230
1.0
 70
     8
 71
     3
 72
     8
 73
     4
 74
     0
 42
0.000000001
 43
0.0000001
 40
0.0
 40
0.0
 40
0.0
 40
0.0
 40
1.0
 40
1.0
 40
1.0
 40
1.0
 10
286.14741
 20
177.75
 30
0.0
 10
287.074642
 20
177.75
 30
0.0
 10
287.246033
 20
175.752015
 30
0.0
 10
287.225047
 20
165.1875
 30
0.0
  0
SPLINE
  5
1E0
330
1F
100
AcDbEntity
  8
0
 62
     7
100
AcDbSpline
210
0.0
220
0.0
230
1.0
 70
     8
 71
     3
 72
     8
 73
     4
 74
     0
 42
0.000000001
 43
0.0000001
 40
0.0
 40
0.0
 40
0.0
 40
0.0
 40
1.0
 40
1.0
 40
1.0
 40
1.0
 10
287.225047
 20
165.1875
 30
0.0
 10
287.201272
 20
153.219195
 30
0.0
 10
287.139195
 20
152.697487
 30
0.0
 10
285.912547
 20
154.157572
 30
0.0
  0
SPLINE
  5
1E1
330
1F
100
AcDbEntity
  8
0
 62
     7
100
AcDbSpline
210
0.0
220
0.0
230
1.0
 70
     8
 71
     3
 72
     8
 73
     4
 74
     0
 42
0.000000001
 43
0.0000001
 40
0.0
 40
0.0
 40
0.0
 40
0.0
 40
1.0
 40
1.0
 40
1.0
 40
1.0
 10
285.912547
 20
154.157572
 30
0.0
 10
285.204397
 20
155.00049
 30
0.0
 10
281.5875
 20
159.170272
 30
0.0
 10
277.875
 20
163.423755
 30
0.0
  0
LWPOLYLINE
  5
1E2
330
1F
100
AcDbEntity
  8
0
 62
     7
100
AcDbPolyline
 90
        3
 70
     0
 43
0.0
 10
277.5
 20
167.376023
 10
284.625
 20
159.139335
 10
284.83491
 20
168.444668
  0
SPLINE
  5
1E3
330
1F
100
AcDbEntity
  8
0
 62
     7
100
AcDbSpline
210
0.0
220
0.0
230
1.0
 70
     8
 71
     3
 72
     8
 73
     4
 74
     0
 42
0.000000001
 43
0.0000001
 40
0.0
 40
0.0
 40
0.0
 40
0.0
 40
1.0
 40
1.0
 40
1.0
 40
1.0
 10
270.914415
 20
162.078683
 30
0.0
 10
270.743002
 20
154.688828
 30
0.0
 10
270.498855
 20
153.0
 30
0.0
 10
269.601915
 20
153.0
 30
0.0
  0
SPLINE
  5
1E4
330
1F
100
AcDbEntity
  8
0
 62
     7
100
AcDbSpline
210
0.0
220
0.0
230
1.0
 70
     8
 71
     3
 72
     8
 73
     4
 74
     0
 42
0.000000001
 43
0.0000001
 40
0.0
 40
0.0
 40
0.0
 40
0.0
 40
1.0
 40
1.0
 40
1.0
 40
1.0
 10
269.601915
 20
153.0
 30
0.0
 10
268.67826
 20
153.0
 30
0.0
 10
268.5
 20
154.95612
 30
0.0
 10
268.5
 20
165.09183
 30
0.0
  0
LWPOLYLINE
  5
1E5
330
1F
100
AcDbEntity
  8
0
 62
     7
100
AcDbPolyline
 90
        3
 70
     0
 43
0.0
 10
277.875
 20
163.423755
 10
271.125
 20
171.157373
 10
270.914415
 20
162.078683
  0
LWPOLYLINE
  5
1E6
330
1F
100
AcDbEntity
  8
0
 62
     7
100
AcDbPolyline
 90
        2
 70
     1
 43
0.0
 10
268.5
 20
165.09183
 10
268.5
 20
165.09183
  0
SPLINE
  5
1E7
330
1F
100
AcDbEntity
  8
0
 62
     7
100
AcDbSpline
210
0.0
220
0.0
230
1.0
 70
     8
 71
     3
 72
     8
 73
     4
 74
     0
 42
0.000000001
 43
0.0000001
 40
0.0
 40
0.0
 40
0.0
 40
0.0
 40
1.0
 40
1.0
 40
1.0
 40
1.0
 10
293.625
 20
175.5
 30
0.0
 10
291.79167
 20
175.5
 30
0.0
 10
291.0
 20
175.839285
 30
0.0
 10
291.0
 20
176.625
 30
0.0
  0
SPLINE
  5
1E8
330
1F
100
AcDbEntity
  8
0
 62
     7
100
AcDbSpline
210
0.0
220
0.0
230
1.0
 70
     8
 71
     3
 72
     8
 73
     4
 74
     0
 42
0.000000001
 43
0.0000001
 40
0.0
 40
0.0
 40
0.0
 40
0.0
 40
1.0
 40
1.0
 40
1.0
 40
1.0
 10
291.0
 20
176.625
 30
0.0
 10
291.0
 20
177.541665
 30
0.0
 10
292.250002
 20
177.75
 30
0.0
 10
297.75
 20
177.75
 30
0.0
  0
SPLINE
  5
1E9
330
1F
100
AcDbEntity
  8
0
 62
     7
100
AcDbSpline
210
0.0
220
0.0
230
1.0
 70
     8
 71
     3
 72
     8
 73
     4
 74
     0
 42
0.000000001
 43
0.0000001
 40
0.0
 40
0.0
 40
0.0
 40
0.0
 40
1.0
 40
1.0
 40
1.0
 40
1.0
 10
297.75
 20
177.75
 30
0.0
 10
303.124208
 20
177.75
 30
0.0
 10
304.5
 20
177.529928
 30
0.0
 10
304.5
 20
176.670277
 30
0.0
  0
SPLINE
  5
1EA
330
1F
100
AcDbEntity
  8
0
 62
     7
100
AcDbSpline
210
0.0
220
0.0
230
1.0
 70
     8
 71
     3
 72
     8
 73
     4
 74
     0
 42
0.000000001
 43
0.0000001
 40
0.0
 40
0.0
 40
0.0
 40
0.0
 40
1.0
 40
1.0
 40
1.0
 40
1.0
 10
304.5
 20
176.670277
 30
0.0
 10
304.5
 20
175.963973
 30
0.0
 10
303.527295
 20
175.510043
 30
0.0
 10
301.6875
 20
175.357777
 30
0.0
  0
LWPOLYLINE
  5
1EB
330
1F
100
AcDbEntity
  8
0
 62
     7
100
AcDbPolyline
 90
        3
 70
     0
 43
0.0
 10
296.25
 20
164.25
 10
296.25
 20
175.5
 10
293.625
 20
175.5
  0
SPLINE
  5
1EC
330
1F
100
AcDbEntity
  8
0
 62
     7
100
AcDbSpline
210
0.0
220
0.0
230
1.0
 70
     8
 71
     3
 72
     8
 73
     4
 74
     0
 42
0.000000001
 43
0.0000001
 40
0.0
 40
0.0
 40
0.0
 40
0.0
 40
1.0
 40
1.0
 40
1.0
 40
1.0
 10
298.667453
 20
164.0625
 30
0.0
 10
298.495778
 20
154.912297
 30
0.0
 10
298.268895
 20
153.0
 30
0.0
 10
297.354953
 20
153.0
 30
0.0
  0
SPLINE
  5
1ED
330
1F
100
AcDbEntity
  8
0
 62
     7
100
AcDbSpline
210
0.0
220
0.0
230
1.0
 70
     8
 71
     3
 72
     8
 73
     4
 74
     0
 42
0.000000001
 43
0.0000001
 40
0.0
 40
0.0
 40
0.0
 40
0.0
 40
1.0
 40
1.0
 40
1.0
 40
1.0
 10
297.354953
 20
153.0
 30
0.0
 10
296.430795
 20
153.0
 30
0.0
 10
296.25
 20
154.840725
 30
0.0
 10
296.25
 20
164.25
 30
0.0
  0
LWPOLYLINE
  5
1EE
330
1F
100
AcDbEntity
  8
0
 62
     7
100
AcDbPolyline
 90
        3
 70
     0
 43
0.0
 10
301.6875
 20
175.357777
 10
298.875
 20
175.125
 10
298.667453
 20
164.0625
  0
SPLINE
  5
1EF
330
1F
100
AcDbEntity
  8
0
 62
     7
100
AcDbSpline
210
0.0
220
0.0
230
1.0
 70
     8
 71
     3
 72
     8
 73
     4
 74
     0
 42
0.000000001
 43
0.0000001
 40
0.0
 40
0.0
 40
0.0
 40
0.0
 40
1.0
 40
1.0
 40
1.0
 40
1.0
 10
328.178145
 20
164.812372
 30
0.0
 10
331.242233
 20
171.309173
 30
0.0
 10
334.002517
 20
176.697892
 30
0.0
 10
334.31211
 20
176.7873
 30
0.0
  0
SPLINE
  5
1F0
330
1F
100
AcDbEntity
  8
0
 62
     7
100
AcDbSpline
210
0.0
220
0.0
230
1.0
 70
     8
 71
     3
 72
     8
 73
     4
 74
     0
 42
0.000000001
 43
0.0000001
 40
0.0
 40
0.0
 40
0.0
 40
0.0
 40
1.0
 40
1.0
 40
1.0
 40
1.0
 10
334.31211
 20
176.7873
 30
0.0
 10
334.621695
 20
176.876715
 30
0.0
 10
337.2375
 20
171.8649
 30
0.0
 10
340.125
 20
165.649942
 30
0.0
  0
SPLINE
  5
1F1
330
1F
100
AcDbEntity
  8
0
 62
     7
100
AcDbSpline
210
0.0
220
0.0
230
1.0
 70
     8
 71
     3
 72
     8
 73
     4
 74
     0
 42
0.000000001
 43
0.0000001
 40
0.0
 40
0.0
 40
0.0
 40
0.0
 40
1.0
 40
1.0
 40
1.0
 40
1.0
 10
340.125
 20
165.649942
 30
0.0
 10
346.519222
 20
151.88724
 30
0.0
 10
346.118595
 20
153.0
 30
0.0
 10
344.679352
 20
153.0
 30
0.0
  0
SPLINE
  5
1F2
330
1F
100
AcDbEntity
  8
0
 62
     7
100
AcDbSpline
210
0.0
220
0.0
230
1.0
 70
     8
 71
     3
 72
     8
 73
     4
 74
     0
 42
0.000000001
 43
0.0000001
 40
0.0
 40
0.0
 40
0.0
 40
0.0
 40
1.0
 40
1.0
 40
1.0
 40
1.0
 10
344.679352
 20
153.0
 30
0.0
 10
343.975305
 20
153.0
 30
0.0
 10
342.651893
 20
154.696028
 30
0.0
 10
341.460615
 20
157.125
 30
0.0
  0
LWPOLYLINE
  5
1F3
330
1F
100
AcDbEntity
  8
0
 62
     7
100
AcDbPolyline
 90
        2
 70
     1
 43
0.0
 10
296.25
 20
164.25
 10
296.25
 20
164.25
  0
SPLINE
  5
1F4
330
1F
100
AcDbEntity
  8
0
 62
     7
100
AcDbSpline
210
0.0
220
0.0
230
1.0
 70
     8
 71
     3
 72
     8
 73
     4
 74
     0
 42
0.000000001
 43
0.0000001
 40
0.0
 40
0.0
 40
0.0
 40
0.0
 40
1.0
 40
1.0
 40
1.0
 40
1.0
 10
327.210615
 20
157.125
 30
0.0
 10
325.9269
 20
154.507567
 30
0.0
 10
324.715987
 20
153.0
 30
0.0
 10
323.897295
 20
153.0
 30
0.0
  0
SPLINE
  5
1F5
330
1F
100
AcDbEntity
  8
0
 62
     7
100
AcDbSpline
210
0.0
220
0.0
230
1.0
 70
     8
 71
     3
 72
     8
 73
     4
 74
     0
 42
0.000000001
 43
0.0000001
 40
0.0
 40
0.0
 40
0.0
 40
0.0
 40
1.0
 40
1.0
 40
1.0
 40
1.0
 10
323.897295
 20
153.0
 30
0.0
 10
322.8582
 20
153.0
 30
0.0
 10
323.691413
 20
155.29914
 30
0.0
 10
328.178145
 20
164.812372
 30
0.0
  0
LWPOLYLINE
  5
1F6
330
1F
100
AcDbEntity
  8
0
 62
     7
100
AcDbPolyline
 90
        5
 70
     0
 43
0.0
 10
341.460615
 20
157.125
 10
339.43752
 20
161.25
 10
334.335615
 20
161.25
 10
329.233702
 20
161.25
 10
327.210615
 20
157.125
  0
SPLINE
  5
1F7
330
1F
100
AcDbEntity
  8
0
 62
     7
100
AcDbSpline
210
0.0
220
0.0
230
1.0
 70
     8
 71
     3
 72
     8
 73
     4
 74
     0
 42
0.000000001
 43
0.0000001
 40
0.0
 40
0.0
 40
0.0
 40
0.0
 40
1.0
 40
1.0
 40
1.0
 40
1.0
 10
338.25
 20
163.89993
 30
0.0
 10
338.25
 20
164.622727
 30
0.0
 10
334.40475
 20
171.905415
 30
0.0
 10
334.164803
 20
171.637072
 30
0.0
  0
SPLINE
  5
1F8
330
1F
100
AcDbEntity
  8
0
 62
     7
100
AcDbSpline
210
0.0
220
0.0
230
1.0
 70
     8
 71
     3
 72
     8
 73
     4
 74
     0
 42
0.000000001
 43
0.0000001
 40
0.0
 40
0.0
 40
0.0
 40
0.0
 40
1.0
 40
1.0
 40
1.0
 40
1.0
 10
334.164803
 20
171.637072
 30
0.0
 10
334.035908
 20
171.492937
 30
0.0
 10
333.040417
 20
169.603125
 30
0.0
 10
331.952587
 20
167.4375
 30
0.0
  0
LWPOLYLINE
  5
1F9
330
1F
100
AcDbEntity
  8
0
 62
     7
100
AcDbPolyline
 90
        2
 70
     1
 43
0.0
 10
328.178145
 20
164.812372
 10
328.178145
 20
164.812372
  0
SPLINE
  5
1FA
330
1F
100
AcDbEntity
  8
0
 62
     7
100
AcDbSpline
210
0.0
220
0.0
230
1.0
 70
     8
 71
     3
 72
     8
 73
     4
 74
     0
 42
0.000000001
 43
0.0000001
 40
0.0
 40
0.0
 40
0.0
 40
0.0
 40
1.0
 40
1.0
 40
1.0
 40
1.0
 10
334.112363
 20
163.5
 30
0.0
 10
336.388065
 20
163.5
 30
0.0
 10
338.25
 20
163.67997
 30
0.0
 10
338.25
 20
163.89993
 30
0.0
  0
LWPOLYLINE
  5
1FB
330
1F
100
AcDbEntity
  8
0
 62
     7
100
AcDbPolyline
 90
        3
 70
     0
 43
0.0
 10
331.952587
 20
167.4375
 10
329.974733
 20
163.5
 10
334.112363
 20
163.5
  0
SPLINE
  5
1FC
330
1F
100
AcDbEntity
  8
0
 62
     7
100
AcDbSpline
210
0.0
220
0.0
230
1.0
 70
     8
 71
     3
 72
     8
 73
     4
 74
     0
 42
0.000000001
 43
0.0000001
 40
0.0
 40
0.0
 40
0.0
 40
0.0
 40
1.0
 40
1.0
 40
1.0
 40
1.0
 10
350.25
 20
165.09183
 30
0.0
 10
350.25
 20
174.684225
 30
0.0
 10
350.443785
 20
177.021308
 30
0.0
 10
351.1875
 20
176.398192
 30
0.0
  0
SPLINE
  5
1FD
330
1F
100
AcDbEntity
  8
0
 62
     7
100
AcDbSpline
210
0.0
220
0.0
230
1.0
 70
     8
 71
     3
 72
     8
 73
     4
 74
     0
 42
0.000000001
 43
0.0000001
 40
0.0
 40
0.0
 40
0.0
 40
0.0
 40
1.0
 40
1.0
 40
1.0
 40
1.0
 10
351.1875
 20
176.398192
 30
0.0
 10
351.703125
 20
175.966178
 30
0.0
 10
355.33125
 20
171.906202
 30
0.0
 10
359.25
 20
167.376023
 30
0.0
  0
LWPOLYLINE
  5
1FE
330
1F
100
AcDbEntity
  8
0
 62
     7
100
AcDbPolyline
 90
        2
 70
     1
 43
0.0
 10
338.25
 20
163.89993
 10
338.25
 20
163.89993
  0
SPLINE
  5
1FF
330
1F
100
AcDbEntity
  8
0
 62
     7
100
AcDbSpline
210
0.0
220
0.0
230
1.0
 70
     8
 71
     3
 72
     8
 73
     4
 74
     0
 42
0.000000001
 43
0.0000001
 40
0.0
 40
0.0
 40
0.0
 40
0.0
 40
1.0
 40
1.0
 40
1.0
 40
1.0
 10
366.58491
 20
168.444668
 30
0.0
 10
366.756173
 20
176.036835
 30
0.0
 10
366.997807
 20
177.75
 30
0.0
 10
367.89741
 20
177.75
 30
0.0
  0
SPLINE
  5
200
330
1F
100
AcDbEntity
  8
0
 62
     7
100
AcDbSpline
210
0.0
220
0.0
230
1.0
 70
     8
 71
     3
 72
     8
 73
     4
 74
     0
 42
0.000000001
 43
0.0000001
 40
0.0
 40
0.0
 40
0.0
 40
0.0
 40
1.0
 40
1.0
 40
1.0
 40
1.0
 10
367.89741
 20
177.75
 30
0.0
 10
368.824642
 20
177.75
 30
0.0
 10
368.996033
 20
175.752015
 30
0.0
 10
368.975047
 20
165.1875
 30
0.0
  0
SPLINE
  5
201
330
1F
100
AcDbEntity
  8
0
 62
     7
100
AcDbSpline
210
0.0
220
0.0
230
1.0
 70
     8
 71
     3
 72
     8
 73
     4
 74
     0
 42
0.000000001
 43
0.0000001
 40
0.0
 40
0.0
 40
0.0
 40
0.0
 40
1.0
 40
1.0
 40
1.0
 40
1.0
 10
368.975047
 20
165.1875
 30
0.0
 10
368.951272
 20
153.219195
 30
0.0
 10
368.889195
 20
152.697487
 30
0.0
 10
367.662547
 20
154.157572
 30
0.0
  0
SPLINE
  5
202
330
1F
100
AcDbEntity
  8
0
 62
     7
100
AcDbSpline
210
0.0
220
0.0
230
1.0
 70
     8
 71
     3
 72
     8
 73
     4
 74
     0
 42
0.000000001
 43
0.0000001
 40
0.0
 40
0.0
 40
0.0
 40
0.0
 40
1.0
 40
1.0
 40
1.0
 40
1.0
 10
367.662547
 20
154.157572
 30
0.0
 10
366.954397
 20
155.00049
 30
0.0
 10
363.3375
 20
159.170272
 30
0.0
 10
359.625
 20
163.423755
 30
0.0
  0
LWPOLYLINE
  5
203
330
1F
100
AcDbEntity
  8
0
 62
     7
100
AcDbPolyline
 90
        3
 70
     0
 43
0.0
 10
359.25
 20
167.376023
 10
366.375
 20
159.139335
 10
366.58491
 20
168.444668
  0
SPLINE
  5
204
330
1F
100
AcDbEntity
  8
0
 62
     7
100
AcDbSpline
210
0.0
220
0.0
230
1.0
 70
     8
 71
     3
 72
     8
 73
     4
 74
     0
 42
0.000000001
 43
0.0000001
 40
0.0
 40
0.0
 40
0.0
 40
0.0
 40
1.0
 40
1.0
 40
1.0
 40
1.0
 10
352.664415
 20
162.078683
 30
0.0
 10
352.493002
 20
154.688828
 30
0.0
 10
352.248855
 20
153.0
 30
0.0
 10
351.351915
 20
153.0
 30
0.0
  0
SPLINE
  5
205
330
1F
100
AcDbEntity
  8
0
 62
     7
100
AcDbSpline
210
0.0
220
0.0
230
1.0
 70
     8
 71
     3
 72
     8
 73
     4
 74
     0
 42
0.000000001
 43
0.0000001
 40
0.0
 40
0.0
 40
0.0
 40
0.0
 40
1.0
 40
1.0
 40
1.0
 40
1.0
 10
351.351915
 20
153.0
 30
0.0
 10
350.42826
 20
153.0
 30
0.0
 10
350.25
 20
154.95612
 30
0.0
 10
350.25
 20
165.09183
 30
0.0
  0
LWPOLYLINE
  5
206
330
1F
100
AcDbEntity
  8
0
 62
     7
100
AcDbPolyline
 90
        3
 70
     0
 43
0.0
 10
359.625
 20
163.423755
 10
352.875
 20
171.157373
 10
352.664415
 20
162.078683
  0
LWPOLYLINE
  5
207
330
1F
100
AcDbEntity
  8
0
 62
     7
100
AcDbPolyline
 90
        2
 70
     1
 43
0.0
 10
350.25
 20
165.09183
 10
350.25
 20
165.09183
  0
SPLINE
  5
208
330
1F
100
AcDbEntity
  8
0
 62
     7
100
AcDbSpline
210
0.0
220
0.0
230
1.0
 70
     8
 71
     3
 72
     8
 73
     4
 74
     0
 42
0.000000001
 43
0.0000001
 40
0.0
 40
0.0
 40
0.0
 40
0.0
 40
1.0
 40
1.0
 40
1.0
 40
1.0
 10
381.83988
 20
177.50271
 30
0.0
 10
391.686847
 20
176.743365
 30
0.0
 10
395.365635
 20
173.598832
 30
0.0
 10
395.818185
 20
165.554422
 30
0.0
  0
SPLINE
  5
209
330
1F
100
AcDbEntity
  8
0
 62
     7
100
AcDbSpline
210
0.0
220
0.0
230
1.0
 70
     8
 71
     3
 72
     8
 73
     4
 74
     0
 42
0.000000001
 43
0.0000001
 40
0.0
 40
0.0
 40
0.0
 40
0.0
 40
1.0
 40
1.0
 40
1.0
 40
1.0
 10
395.818185
 20
165.554422
 30
0.0
 10
396.027915
 20
161.82642
 30
0.0
 10
395.769585
 20
160.378012
 30
0.0
 10
394.547572
 20
158.430645
 30
0.0
  0
SPLINE
  5
20A
330
1F
100
AcDbEntity
  8
0
 62
     7
100
AcDbSpline
210
0.0
220
0.0
230
1.0
 70
     8
 71
     3
 72
     8
 73
     4
 74
     0
 42
0.000000001
 43
0.0000001
 40
0.0
 40
0.0
 40
0.0
 40
0.0
 40
1.0
 40
1.0
 40
1.0
 40
1.0
 10
394.547572
 20
158.430645
 30
0.0
 10
391.94109
 20
154.276965
 30
0.0
 10
388.988347
 20
153.006
 30
0.0
 10
381.9375
 20
153.002805
 30
0.0
  0
LWPOLYLINE
  5
20B
330
1F
100
AcDbEntity
  8
0
 62
     7
100
AcDbPolyline
 90
        3
 70
     0
 43
0.0
 10
375.75
 20
165.486165
 10
375.75
 20
177.972323
 10
381.83988
 20
177.50271
  0
SPLINE
  5
20C
330
1F
100
AcDbEntity
  8
0
 62
     7
100
AcDbSpline
210
0.0
220
0.0
230
1.0
 70
     8
 71
     3
 72
     8
 73
     4
 74
     0
 42
0.000000001
 43
0.0000001
 40
0.0
 40
0.0
 40
0.0
 40
0.0
 40
1.0
 40
1.0
 40
1.0
 40
1.0
 10
390.948195
 20
158.102048
 30
0.0
 10
393.141165
 20
160.29501
 30
0.0
 10
393.375
 20
160.959668
 30
0.0
 10
393.375
 20
165.0
 30
0.0
  0
SPLINE
  5
20D
330
1F
100
AcDbEntity
  8
0
 62
     7
100
AcDbSpline
210
0.0
220
0.0
230
1.0
 70
     8
 71
     3
 72
     8
 73
     4
 74
     0
 42
0.000000001
 43
0.0000001
 40
0.0
 40
0.0
 40
0.0
 40
0.0
 40
1.0
 40
1.0
 40
1.0
 40
1.0
 10
393.375
 20
165.0
 30
0.0
 10
393.375
 20
168.968197
 30
0.0
 10
393.121897
 20
169.724122
 30
0.0
 10
391.125
 20
171.720022
 30
0.0
  0
SPLINE
  5
20E
330
1F
100
AcDbEntity
  8
0
 62
     7
100
AcDbSpline
210
0.0
220
0.0
230
1.0
 70
     8
 71
     3
 72
     8
 73
     4
 74
     0
 42
0.000000001
 43
0.0000001
 40
0.0
 40
0.0
 40
0.0
 40
0.0
 40
1.0
 40
1.0
 40
1.0
 40
1.0
 10
391.125
 20
171.720022
 30
0.0
 10
389.546685
 20
173.297535
 30
0.0
 10
387.668992
 20
174.197422
 30
0.0
 10
384.835132
 20
174.734445
 30
0.0
  0
SPLINE
  5
20F
330
1F
100
AcDbEntity
  8
0
 62
     7
100
AcDbSpline
210
0.0
220
0.0
230
1.0
 70
     8
 71
     3
 72
     8
 73
     4
 74
     0
 42
0.000000001
 43
0.0000001
 40
0.0
 40
0.0
 40
0.0
 40
0.0
 40
1.0
 40
1.0
 40
1.0
 40
1.0
 10
384.835132
 20
174.734445
 30
0.0
 10
377.463615
 20
176.13135
 30
0.0
 10
378.0
 20
176.87247
 30
0.0
 10
378.0
 20
165.290363
 30
0.0
  0
LWPOLYLINE
  5
210
330
1F
100
AcDbEntity
  8
0
 62
     7
100
AcDbPolyline
 90
        3
 70
     0
 43
0.0
 10
381.9375
 20
153.002805
 10
375.75
 20
153.0
 10
375.75
 20
165.486165
  0
SPLINE
  5
211
330
1F
100
AcDbEntity
  8
0
 62
     7
100
AcDbSpline
210
0.0
220
0.0
230
1.0
 70
     8
 71
     3
 72
     8
 73
     4
 74
     0
 42
0.000000001
 43
0.0000001
 40
0.0
 40
0.0
 40
0.0
 40
0.0
 40
1.0
 40
1.0
 40
1.0
 40
1.0
 10
383.260695
 20
155.377988
 30
0.0
 10
388.001377
 20
155.645858
 30
0.0
 10
388.761285
 20
155.91513
 30
0.0
 10
390.948195
 20
158.102048
 30
0.0
  0
LWPOLYLINE
  5
212
330
1F
100
AcDbEntity
  8
0
 62
     7
100
AcDbPolyline
 90
        3
 70
     0
 43
0.0
 10
378.0
 20
165.290363
 10
378.0
 20
155.080733
 10
383.260695
 20
155.377988
  0
SPLINE
  5
213
330
1F
100
AcDbEntity
  8
0
 62
     7
100
AcDbSpline
210
0.0
220
0.0
230
1.0
 70
     8
 71
     3
 72
     8
 73
     4
 74
     0
 42
0.000000001
 43
0.0000001
 40
0.0
 40
0.0
 40
0.0
 40
0.0
 40
1.0
 40
1.0
 40
1.0
 40
1.0
 10
438.0
 20
165.375
 30
0.0
 10
438.0
 20
175.875
 30
0.0
 10
438.170453
 20
177.75
 30
0.0
 10
439.125
 20
177.75
 30
0.0
  0
SPLINE
  5
214
330
1F
100
AcDbEntity
  8
0
 62
     7
100
AcDbSpline
210
0.0
220
0.0
230
1.0
 70
     8
 71
     3
 72
     8
 73
     4
 74
     0
 42
0.000000001
 43
0.0000001
 40
0.0
 40
0.0
 40
0.0
 40
0.0
 40
1.0
 40
1.0
 40
1.0
 40
1.0
 10
439.125
 20
177.75
 30
0.0
 10
440.079547
 20
177.75
 30
0.0
 10
440.25
 20
175.875
 30
0.0
 10
440.25
 20
165.375
 30
0.0
  0
SPLINE
  5
215
330
1F
100
AcDbEntity
  8
0
 62
     7
100
AcDbSpline
210
0.0
220
0.0
230
1.0
 70
     8
 71
     3
 72
     8
 73
     4
 74
     0
 42
0.000000001
 43
0.0000001
 40
0.0
 40
0.0
 40
0.0
 40
0.0
 40
1.0
 40
1.0
 40
1.0
 40
1.0
 10
440.25
 20
165.375
 30
0.0
 10
440.25
 20
154.875
 30
0.0
 10
440.079547
 20
153.0
 30
0.0
 10
439.125
 20
153.0
 30
0.0
  0
SPLINE
  5
216
330
1F
100
AcDbEntity
  8
0
 62
     7
100
AcDbSpline
210
0.0
220
0.0
230
1.0
 70
     8
 71
     3
 72
     8
 73
     4
 74
     0
 42
0.000000001
 43
0.0000001
 40
0.0
 40
0.0
 40
0.0
 40
0.0
 40
1.0
 40
1.0
 40
1.0
 40
1.0
 10
439.125
 20
153.0
 30
0.0
 10
438.170453
 20
153.0
 30
0.0
 10
438.0
 20
154.875
 30
0.0
 10
438.0
 20
165.375
 30
0.0
  0
LWPOLYLINE
  5
217
330
1F
100
AcDbEntity
  8
0
 62
     7
100
AcDbPolyline
 90
        2
 70
     1
 43
0.0
 10
390.948195
 20
158.102048
 10
390.948195
 20
158.102048
  0
SPLINE
  5
218
330
1F
100
AcDbEntity
  8
0
 62
     7
100
AcDbSpline
210
0.0
220
0.0
230
1.0
 70
     8
 71
     3
 72
     8
 73
     4
 74
     0
 42
0.000000001
 43
0.0000001
 40
0.0
 40
0.0
 40
0.0
 40
0.0
 40
1.0
 40
1.0
 40
1.0
 40
1.0
 10
448.984395
 20
164.78823
 30
0.0
 10
446.22501
 20
171.298455
 30
0.0
 10
443.97468
 20
176.878125
 30
0.0
 10
443.983665
 20
177.1875
 30
0.0
  0
SPLINE
  5
219
330
1F
100
AcDbEntity
  8
0
 62
     7
100
AcDbSpline
210
0.0
220
0.0
230
1.0
 70
     8
 71
     3
 72
     8
 73
     4
 74
     0
 42
0.000000001
 43
0.0000001
 40
0.0
 40
0.0
 40
0.0
 40
0.0
 40
1.0
 40
1.0
 40
1.0
 40
1.0
 10
443.983665
 20
177.1875
 30
0.0
 10
443.992665
 20
177.496875
 30
0.0
 10
444.456442
 20
177.75
 30
0.0
 10
445.014315
 20
177.75
 30
0.0
  0
SPLINE
  5
21A
330
1F
100
AcDbEntity
  8
0
 62
     7
100
AcDbSpline
210
0.0
220
0.0
230
1.0
 70
     8
 71
     3
 72
     8
 73
     4
 74
     0
 42
0.000000001
 43
0.0000001
 40
0.0
 40
0.0
 40
0.0
 40
0.0
 40
1.0
 40
1.0
 40
1.0
 40
1.0
 10
445.014315
 20
177.75
 30
0.0
 10
445.600995
 20
177.75
 30
0.0
 10
447.707902
 20
173.785838
 30
0.0
 10
450.0117
 20
168.347385
 30
0.0
  0
SPLINE
  5
21B
330
1F
100
AcDbEntity
  8
0
 62
     7
100
AcDbSpline
210
0.0
220
0.0
230
1.0
 70
     8
 71
     3
 72
     8
 73
     4
 74
     0
 42
0.000000001
 43
0.0000001
 40
0.0
 40
0.0
 40
0.0
 40
0.0
 40
1.0
 40
1.0
 40
1.0
 40
1.0
 10
450.0117
 20
168.347385
 30
0.0
 10
452.202382
 20
163.17594
 30
0.0
 10
454.240987
 20
159.210315
 30
0.0
 10
454.541925
 20
159.534885
 30
0.0
  0
SPLINE
  5
21C
330
1F
100
AcDbEntity
  8
0
 62
     7
100
AcDbSpline
210
0.0
220
0.0
230
1.0
 70
     8
 71
     3
 72
     8
 73
     4
 74
     0
 42
0.000000001
 43
0.0000001
 40
0.0
 40
0.0
 40
0.0
 40
0.0
 40
1.0
 40
1.0
 40
1.0
 40
1.0
 10
454.541925
 20
159.534885
 30
0.0
 10
454.84287
 20
159.859447
 30
0.0
 10
456.728422
 20
163.962787
 30
0.0
 10
458.732047
 20
168.653415
 30
0.0
  0
SPLINE
  5
21D
330
1F
100
AcDbEntity
  8
0
 62
     7
100
AcDbSpline
210
0.0
220
0.0
230
1.0
 70
     8
 71
     3
 72
     8
 73
     4
 74
     0
 42
0.000000001
 43
0.0000001
 40
0.0
 40
0.0
 40
0.0
 40
0.0
 40
1.0
 40
1.0
 40
1.0
 40
1.0
 10
458.732047
 20
168.653415
 30
0.0
 10
461.995387
 20
176.293132
 30
0.0
 10
463.578397
 20
178.6716
 30
0.0
 10
464.671935
 20
177.578062
 30
0.0
  0
SPLINE
  5
21E
330
1F
100
AcDbEntity
  8
0
 62
     7
100
AcDbSpline
210
0.0
220
0.0
230
1.0
 70
     8
 71
     3
 72
     8
 73
     4
 74
     0
 42
0.000000001
 43
0.0000001
 40
0.0
 40
0.0
 40
0.0
 40
0.0
 40
1.0
 40
1.0
 40
1.0
 40
1.0
 10
464.671935
 20
177.578062
 30
0.0
 10
465.037275
 20
177.21273
 30
0.0
 10
455.503125
 20
154.601025
 30
0.0
 10
454.535625
 20
153.53823
 30
0.0
  0
SPLINE
  5
21F
330
1F
100
AcDbEntity
  8
0
 62
     7
100
AcDbSpline
210
0.0
220
0.0
230
1.0
 70
     8
 71
     3
 72
     8
 73
     4
 74
     0
 42
0.000000001
 43
0.0000001
 40
0.0
 40
0.0
 40
0.0
 40
0.0
 40
1.0
 40
1.0
 40
1.0
 40
1.0
 10
454.535625
 20
153.53823
 30
0.0
 10
454.241835
 20
153.215513
 30
0.0
 10
451.74378
 20
158.278013
 30
0.0
 10
448.984395
 20
164.78823
 30
0.0
  0
LWPOLYLINE
  5
220
330
1F
100
AcDbEntity
  8
0
 62
     7
100
AcDbPolyline
 90
        2
 70
     1
 43
0.0
 10
438.0
 20
165.375
 10
438.0
 20
165.375
  0
SPLINE
  5
221
330
1F
100
AcDbEntity
  8
0
 62
     7
100
AcDbSpline
210
0.0
220
0.0
230
1.0
 70
     8
 71
     3
 72
     8
 73
     4
 74
     0
 42
0.000000001
 43
0.0000001
 40
0.0
 40
0.0
 40
0.0
 40
0.0
 40
1.0
 40
1.0
 40
1.0
 40
1.0
 10
468.75
 20
165.375
 30
0.0
 10
468.75
 20
175.875
 30
0.0
 10
468.920453
 20
177.75
 30
0.0
 10
469.875
 20
177.75
 30
0.0
  0
SPLINE
  5
222
330
1F
100
AcDbEntity
  8
0
 62
     7
100
AcDbSpline
210
0.0
220
0.0
230
1.0
 70
     8
 71
     3
 72
     8
 73
     4
 74
     0
 42
0.000000001
 43
0.0000001
 40
0.0
 40
0.0
 40
0.0
 40
0.0
 40
1.0
 40
1.0
 40
1.0
 40
1.0
 10
469.875
 20
177.75
 30
0.0
 10
470.829547
 20
177.75
 30
0.0
 10
471.0
 20
175.875
 30
0.0
 10
471.0
 20
165.375
 30
0.0
  0
SPLINE
  5
223
330
1F
100
AcDbEntity
  8
0
 62
     7
100
AcDbSpline
210
0.0
220
0.0
230
1.0
 70
     8
 71
     3
 72
     8
 73
     4
 74
     0
 42
0.000000001
 43
0.0000001
 40
0.0
 40
0.0
 40
0.0
 40
0.0
 40
1.0
 40
1.0
 40
1.0
 40
1.0
 10
471.0
 20
165.375
 30
0.0
 10
471.0
 20
154.875
 30
0.0
 10
470.829547
 20
153.0
 30
0.0
 10
469.875
 20
153.0
 30
0.0
  0
SPLINE
  5
224
330
1F
100
AcDbEntity
  8
0
 62
     7
100
AcDbSpline
210
0.0
220
0.0
230
1.0
 70
     8
 71
     3
 72
     8
 73
     4
 74
     0
 42
0.000000001
 43
0.0000001
 40
0.0
 40
0.0
 40
0.0
 40
0.0
 40
1.0
 40
1.0
 40
1.0
 40
1.0
 10
469.875
 20
153.0
 30
0.0
 10
468.920453
 20
153.0
 30
0.0
 10
468.75
 20
154.875
 30
0.0
 10
468.75
 20
165.375
 30
0.0
  0
LWPOLYLINE
  5
225
330
1F
100
AcDbEntity
  8
0
 62
     7
100
AcDbPolyline
 90
        2
 70
     1
 43
0.0
 10
448.984395
 20
164.78823
 10
448.984395
 20
164.78823
  0
LWPOLYLINE
  5
226
330
1F
100
AcDbEntity
  8
0
 62
     7
100
AcDbPolyline
 90
        2
 70
     1
 43
0.0
 10
468.75
 20
165.375
 10
468.75
 20
165.375
  0
SPLINE
  5
227
330
1F
100
AcDbEntity
  8
0
 62
     7
100
AcDbSpline
210
0.0
220
0.0
230
1.0
 70
     8
 71
     3
 72
     8
 73
     4
 74
     0
 42
0.000000001
 43
0.0000001
 40
0.0
 40
0.0
 40
0.0
 40
0.0
 40
1.0
 40
1.0
 40
1.0
 40
1.0
 10
521.625
 20
177.75
 30
0.0
 10
527.36697
 20
177.75
 30
0.0
 10
528.75
 20
177.53775
 30
0.0
 10
528.75
 20
176.656545
 30
0.0
  0
SPLINE
  5
228
330
1F
100
AcDbEntity
  8
0
 62
     7
100
AcDbSpline
210
0.0
220
0.0
230
1.0
 70
     8
 71
     3
 72
     8
 73
     4
 74
     0
 42
0.000000001
 43
0.0000001
 40
0.0
 40
0.0
 40
0.0
 40
0.0
 40
1.0
 40
1.0
 40
1.0
 40
1.0
 10
528.75
 20
176.656545
 30
0.0
 10
528.75
 20
175.811512
 30
0.0
 10
527.429467
 20
175.513328
 30
0.0
 10
522.9375
 20
175.344045
 30
0.0
  0
LWPOLYLINE
  5
229
330
1F
100
AcDbEntity
  8
0
 62
     7
100
AcDbPolyline
 90
        3
 70
     0
 43
0.0
 10
514.5
 20
165.375
 10
514.5
 20
177.75
 10
521.625
 20
177.75
  0
SPLINE
  5
22A
330
1F
100
AcDbEntity
  8
0
 62
     7
100
AcDbSpline
210
0.0
220
0.0
230
1.0
 70
     8
 71
     3
 72
     8
 73
     4
 74
     0
 42
0.000000001
 43
0.0000001
 40
0.0
 40
0.0
 40
0.0
 40
0.0
 40
1.0
 40
1.0
 40
1.0
 40
1.0
 10
522.710805
 20
167.25
 30
0.0
 10
527.57898
 20
167.25
 30
0.0
 10
528.75
 20
167.031855
 30
0.0
 10
528.75
 20
166.125
 30
0.0
  0
SPLINE
  5
22B
330
1F
100
AcDbEntity
  8
0
 62
     7
100
AcDbSpline
210
0.0
220
0.0
230
1.0
 70
     8
 71
     3
 72
     8
 73
     4
 74
     0
 42
0.000000001
 43
0.0000001
 40
0.0
 40
0.0
 40
0.0
 40
0.0
 40
1.0
 40
1.0
 40
1.0
 40
1.0
 10
528.75
 20
166.125
 30
0.0
 10
528.75
 20
165.218752
 30
0.0
 10
527.58333
 20
165.0
 30
0.0
 10
522.75
 20
165.0
 30
0.0
  0
LWPOLYLINE
  5
22C
330
1F
100
AcDbEntity
  8
0
 62
     7
100
AcDbPolyline
 90
        5
 70
     0
 43
0.0
 10
522.9375
 20
175.344045
 10
517.125
 20
175.125
 10
516.898305
 20
171.1875
 10
516.67161
 20
167.25
 10
522.710805
 20
167.25
  0
SPLINE
  5
22D
330
1F
100
AcDbEntity
  8
0
 62
     7
100
AcDbSpline
210
0.0
220
0.0
230
1.0
 70
     8
 71
     3
 72
     8
 73
     4
 74
     0
 42
0.000000001
 43
0.0000001
 40
0.0
 40
0.0
 40
0.0
 40
0.0
 40
1.0
 40
1.0
 40
1.0
 40
1.0
 10
522.75
 20
155.25
 30
0.0
 10
527.58333
 20
155.25
 30
0.0
 10
528.75
 20
155.031248
 30
0.0
 10
528.75
 20
154.125
 30
0.0
  0
SPLINE
  5
22E
330
1F
100
AcDbEntity
  8
0
 62
     7
100
AcDbSpline
210
0.0
220
0.0
230
1.0
 70
     8
 71
     3
 72
     8
 73
     4
 74
     0
 42
0.000000001
 43
0.0000001
 40
0.0
 40
0.0
 40
0.0
 40
0.0
 40
1.0
 40
1.0
 40
1.0
 40
1.0
 10
528.75
 20
154.125
 30
0.0
 10
528.75
 20
153.203948
 30
0.0
 10
527.458335
 20
153.0
 30
0.0
 10
521.625
 20
153.0
 30
0.0
  0
LWPOLYLINE
  5
22F
330
1F
100
AcDbEntity
  8
0
 62
     7
100
AcDbPolyline
 90
        5
 70
     0
 43
0.0
 10
522.75
 20
165.0
 10
516.75
 20
165.0
 10
516.75
 20
160.125
 10
516.75
 20
155.25
 10
522.75
 20
155.25
  0
SPLINE
  5
230
330
1F
100
AcDbEntity
  8
0
 62
     7
100
AcDbSpline
210
0.0
220
0.0
230
1.0
 70
     8
 71
     3
 72
     8
 73
     4
 74
     0
 42
0.000000001
 43
0.0000001
 40
0.0
 40
0.0
 40
0.0
 40
0.0
 40
1.0
 40
1.0
 40
1.0
 40
1.0
 10
533.25
 20
165.500002
 30
0.0
 10
533.25
 20
172.374997
 30
0.0
 10
533.367113
 20
177.859372
 30
0.0
 10
533.510257
 20
177.687502
 30
0.0
  0
SPLINE
  5
231
330
1F
100
AcDbEntity
  8
0
 62
     7
100
AcDbSpline
210
0.0
220
0.0
230
1.0
 70
     8
 71
     3
 72
     8
 73
     4
 74
     0
 42
0.000000001
 43
0.0000001
 40
0.0
 40
0.0
 40
0.0
 40
0.0
 40
1.0
 40
1.0
 40
1.0
 40
1.0
 10
533.510257
 20
177.687502
 30
0.0
 10
533.653395
 20
177.515625
 30
0.0
 10
537.45027
 20
173.157285
 30
0.0
 10
541.947757
 20
168.002295
 30
0.0
  0
LWPOLYLINE
  5
232
330
1F
100
AcDbEntity
  8
0
 62
     7
100
AcDbPolyline
 90
        3
 70
     0
 43
0.0
 10
521.625
 20
153.0
 10
514.5
 20
153.0
 10
514.5
 20
165.375
  0
SPLINE
  5
233
330
1F
100
AcDbEntity
  8
0
 62
     7
100
AcDbSpline
210
0.0
220
0.0
230
1.0
 70
     8
 71
     3
 72
     8
 73
     4
 74
     0
 42
0.000000001
 43
0.0000001
 40
0.0
 40
0.0
 40
0.0
 40
0.0
 40
1.0
 40
1.0
 40
1.0
 40
1.0
 10
550.33491
 20
168.189795
 30
0.0
 10
550.506525
 20
176.006212
 30
0.0
 10
550.745925
 20
177.75
 30
0.0
 10
551.64741
 20
177.75
 30
0.0
  0
SPLINE
  5
234
330
1F
100
AcDbEntity
  8
0
 62
     7
100
AcDbSpline
210
0.0
220
0.0
230
1.0
 70
     8
 71
     3
 72
     8
 73
     4
 74
     0
 42
0.000000001
 43
0.0000001
 40
0.0
 40
0.0
 40
0.0
 40
0.0
 40
1.0
 40
1.0
 40
1.0
 40
1.0
 10
551.64741
 20
177.75
 30
0.0
 10
552.572985
 20
177.75
 30
0.0
 10
552.75
 20
175.763227
 30
0.0
 10
552.75
 20
165.375
 30
0.0
  0
SPLINE
  5
235
330
1F
100
AcDbEntity
  8
0
 62
     7
100
AcDbSpline
210
0.0
220
0.0
230
1.0
 70
     8
 71
     3
 72
     8
 73
     4
 74
     0
 42
0.000000001
 43
0.0000001
 40
0.0
 40
0.0
 40
0.0
 40
0.0
 40
1.0
 40
1.0
 40
1.0
 40
1.0
 10
552.75
 20
165.375
 30
0.0
 10
552.75
 20
158.56875
 30
0.0
 10
552.496875
 20
153.024008
 30
0.0
 10
552.1875
 20
153.053355
 30
0.0
  0
SPLINE
  5
236
330
1F
100
AcDbEntity
  8
0
 62
     7
100
AcDbSpline
210
0.0
220
0.0
230
1.0
 70
     8
 71
     3
 72
     8
 73
     4
 74
     0
 42
0.000000001
 43
0.0000001
 40
0.0
 40
0.0
 40
0.0
 40
0.0
 40
1.0
 40
1.0
 40
1.0
 40
1.0
 10
552.1875
 20
153.053355
 30
0.0
 10
551.878125
 20
153.08268
 30
0.0
 10
548.08125
 20
157.199055
 30
0.0
 10
543.75
 20
162.200805
 30
0.0
  0
LWPOLYLINE
  5
237
330
1F
100
AcDbEntity
  8
0
 62
     7
100
AcDbPolyline
 90
        3
 70
     0
 43
0.0
 10
541.947757
 20
168.002295
 10
550.125
 20
158.629597
 10
550.33491
 20
168.189795
  0
SPLINE
  5
238
330
1F
100
AcDbEntity
  8
0
 62
     7
100
AcDbSpline
210
0.0
220
0.0
230
1.0
 70
     8
 71
     3
 72
     8
 73
     4
 74
     0
 42
0.000000001
 43
0.0000001
 40
0.0
 40
0.0
 40
0.0
 40
0.0
 40
1.0
 40
1.0
 40
1.0
 40
1.0
 10
535.664415
 20
162.14745
 30
0.0
 10
535.492898
 20
154.697107
 30
0.0
 10
535.249395
 20
153.0
 30
0.0
 10
534.351915
 20
153.0
 30
0.0
  0
SPLINE
  5
239
330
1F
100
AcDbEntity
  8
0
 62
     7
100
AcDbSpline
210
0.0
220
0.0
230
1.0
 70
     8
 71
     3
 72
     8
 73
     4
 74
     0
 42
0.000000001
 43
0.0000001
 40
0.0
 40
0.0
 40
0.0
 40
0.0
 40
1.0
 40
1.0
 40
1.0
 40
1.0
 10
534.351915
 20
153.0
 30
0.0
 10
533.426775
 20
153.0
 30
0.0
 10
533.25
 20
155.005275
 30
0.0
 10
533.25
 20
165.500002
 30
0.0
  0
LWPOLYLINE
  5
23A
330
1F
100
AcDbEntity
  8
0
 62
     7
100
AcDbPolyline
 90
        3
 70
     0
 43
0.0
 10
543.75
 20
162.200805
 10
535.875
 20
171.2949
 10
535.664415
 20
162.14745
  0
SPLINE
  5
23B
330
1F
100
AcDbEntity
  8
0
 62
     7
100
AcDbSpline
210
0.0
220
0.0
230
1.0
 70
     8
 71
     3
 72
     8
 73
     4
 74
     0
 42
0.000000001
 43
0.0000001
 40
0.0
 40
0.0
 40
0.0
 40
0.0
 40
1.0
 40
1.0
 40
1.0
 40
1.0
 10
585.0
 20
153.426022
 30
0.0
 10
585.0
 20
154.34007
 30
0.0
 10
595.813793
 20
177.0
 30
0.0
 10
596.25
 20
177.0
 30
0.0
  0
SPLINE
  5
23C
330
1F
100
AcDbEntity
  8
0
 62
     7
100
AcDbSpline
210
0.0
220
0.0
230
1.0
 70
     8
 71
     3
 72
     8
 73
     4
 74
     0
 42
0.000000001
 43
0.0000001
 40
0.0
 40
0.0
 40
0.0
 40
0.0
 40
1.0
 40
1.0
 40
1.0
 40
1.0
 10
596.25
 20
177.0
 30
0.0
 10
596.686207
 20
177.0
 30
0.0
 10
607.5
 20
154.34007
 30
0.0
 10
607.5
 20
153.426023
 30
0.0
  0
SPLINE
  5
23D
330
1F
100
AcDbEntity
  8
0
 62
     7
100
AcDbSpline
210
0.0
220
0.0
230
1.0
 70
     8
 71
     3
 72
     8
 73
     4
 74
     0
 42
0.000000001
 43
0.0000001
 40
0.0
 40
0.0
 40
0.0
 40
0.0
 40
1.0
 40
1.0
 40
1.0
 40
1.0
 10
607.5
 20
153.426023
 30
0.0
 10
607.5
 20
153.191708
 30
0.0
 10
606.989497
 20
153.0
 30
0.0
 10
606.365542
 20
153.0
 30
0.0
  0
SPLINE
  5
23E
330
1F
100
AcDbEntity
  8
0
 62
     7
100
AcDbSpline
210
0.0
220
0.0
230
1.0
 70
     8
 71
     3
 72
     8
 73
     4
 74
     0
 42
0.000000001
 43
0.0000001
 40
0.0
 40
0.0
 40
0.0
 40
0.0
 40
1.0
 40
1.0
 40
1.0
 40
1.0
 10
606.365542
 20
153.0
 30
0.0
 10
605.711565
 20
153.0
 30
0.0
 10
604.458442
 20
154.74708
 30
0.0
 10
603.406815
 20
157.125
 30
0.0
  0
LWPOLYLINE
  5
23F
330
1F
100
AcDbEntity
  8
0
 62
     7
100
AcDbPolyline
 90
        2
 70
     1
 43
0.0
 10
533.25
 20
165.500002
 10
533.25
 20
165.500002
  0
SPLINE
  5
240
330
1F
100
AcDbEntity
  8
0
 62
     7
100
AcDbSpline
210
0.0
220
0.0
230
1.0
 70
     8
 71
     3
 72
     8
 73
     4
 74
     0
 42
0.000000001
 43
0.0000001
 40
0.0
 40
0.0
 40
0.0
 40
0.0
 40
1.0
 40
1.0
 40
1.0
 40
1.0
 10
589.093185
 20
157.125
 30
0.0
 10
588.041558
 20
154.74708
 30
0.0
 10
586.788435
 20
153.0
 30
0.0
 10
586.134458
 20
153.0
 30
0.0
  0
SPLINE
  5
241
330
1F
100
AcDbEntity
  8
0
 62
     7
100
AcDbSpline
210
0.0
220
0.0
230
1.0
 70
     8
 71
     3
 72
     8
 73
     4
 74
     0
 42
0.000000001
 43
0.0000001
 40
0.0
 40
0.0
 40
0.0
 40
0.0
 40
1.0
 40
1.0
 40
1.0
 40
1.0
 10
586.134458
 20
153.0
 30
0.0
 10
585.510503
 20
153.0
 30
0.0
 10
585.0
 20
153.191708
 30
0.0
 10
585.0
 20
153.426023
 30
0.0
  0
LWPOLYLINE
  5
242
330
1F
100
AcDbEntity
  8
0
 62
     7
100
AcDbPolyline
 90
        5
 70
     0
 43
0.0
 10
603.406815
 20
157.125
 10
601.582545
 20
161.25
 10
596.25
 20
161.25
 10
590.917455
 20
161.25
 10
589.093185
 20
157.125
  0
SPLINE
  5
243
330
1F
100
AcDbEntity
  8
0
 62
     7
100
AcDbSpline
210
0.0
220
0.0
230
1.0
 70
     8
 71
     3
 72
     8
 73
     4
 74
     0
 42
0.000000001
 43
0.0000001
 40
0.0
 40
0.0
 40
0.0
 40
0.0
 40
1.0
 40
1.0
 40
1.0
 40
1.0
 10
599.874998
 20
164.06601
 30
0.0
 10
599.7375
 20
164.37732
 30
0.0
 10
598.98852
 20
166.23357
 30
0.0
 10
598.210605
 20
168.19101
 30
0.0
  0
SPLINE
  5
244
330
1F
100
AcDbEntity
  8
0
 62
     7
100
AcDbSpline
210
0.0
220
0.0
230
1.0
 70
     8
 71
     3
 72
     8
 73
     4
 74
     0
 42
0.000000001
 43
0.0000001
 40
0.0
 40
0.0
 40
0.0
 40
0.0
 40
1.0
 40
1.0
 40
1.0
 40
1.0
 10
598.210605
 20
168.19101
 30
0.0
 10
597.43269
 20
170.148457
 30
0.0
 10
596.55042
 20
171.75
 30
0.0
 10
596.25
 20
171.75
 30
0.0
  0
SPLINE
  5
245
330
1F
100
AcDbEntity
  8
0
 62
     7
100
AcDbSpline
210
0.0
220
0.0
230
1.0
 70
     8
 71
     3
 72
     8
 73
     4
 74
     0
 42
0.000000001
 43
0.0000001
 40
0.0
 40
0.0
 40
0.0
 40
0.0
 40
1.0
 40
1.0
 40
1.0
 40
1.0
 10
596.25
 20
171.75
 30
0.0
 10
595.94958
 20
171.75
 30
0.0
 10
595.06731
 20
170.148457
 30
0.0
 10
594.289395
 20
168.19101
 30
0.0
  0
SPLINE
  5
246
330
1F
100
AcDbEntity
  8
0
 62
     7
100
AcDbSpline
210
0.0
220
0.0
230
1.0
 70
     8
 71
     3
 72
     8
 73
     4
 74
     0
 42
0.000000001
 43
0.0000001
 40
0.0
 40
0.0
 40
0.0
 40
0.0
 40
1.0
 40
1.0
 40
1.0
 40
1.0
 10
594.289395
 20
168.19101
 30
0.0
 10
593.51148
 20
166.23357
 30
0.0
 10
592.7625
 20
164.37732
 30
0.0
 10
592.625002
 20
164.06601
 30
0.0
  0
SPLINE
  5
247
330
1F
100
AcDbEntity
  8
0
 62
     7
100
AcDbSpline
210
0.0
220
0.0
230
1.0
 70
     8
 71
     3
 72
     8
 73
     4
 74
     0
 42
0.000000001
 43
0.0000001
 40
0.0
 40
0.0
 40
0.0
 40
0.0
 40
1.0
 40
1.0
 40
1.0
 40
1.0
 10
592.625002
 20
164.06601
 30
0.0
 10
592.487498
 20
163.754707
 30
0.0
 10
594.118747
 20
163.5
 30
0.0
 10
596.25
 20
163.5
 30
0.0
  0
SPLINE
  5
248
330
1F
100
AcDbEntity
  8
0
 62
     7
100
AcDbSpline
210
0.0
220
0.0
230
1.0
 70
     8
 71
     3
 72
     8
 73
     4
 74
     0
 42
0.000000001
 43
0.0000001
 40
0.0
 40
0.0
 40
0.0
 40
0.0
 40
1.0
 40
1.0
 40
1.0
 40
1.0
 10
596.25
 20
163.5
 30
0.0
 10
598.381253
 20
163.5
 30
0.0
 10
600.012502
 20
163.754707
 30
0.0
 10
599.874998
 20
164.06601
 30
0.0
  0
LWPOLYLINE
  5
249
330
1F
100
AcDbEntity
  8
0
 62
     7
100
AcDbPolyline
 90
        2
 70
     1
 43
0.0
 10
585.0
 20
153.426023
 10
585.0
 20
153.426023
  0
LWPOLYLINE
  5
24A
330
1F
100
AcDbEntity
  8
0
 62
     7
100
AcDbPolyline
 90
        2
 70
     1
 43
0.0
 10
599.874998
 20
164.06601
 10
599.874998
 20
164.06601
  0
SPLINE
  5
24B
330
1F
100
AcDbEntity
  8
0
 62
     7
100
AcDbSpline
210
0.0
220
0.0
230
1.0
 70
     8
 71
     3
 72
     8
 73
     4
 74
     0
 42
0.000000001
 43
0.0000001
 40
0.0
 40
0.0
 40
0.0
 40
0.0
 40
1.0
 40
1.0
 40
1.0
 40
1.0
 10
646.875
 20
177.75
 30
0.0
 10
652.61697
 20
177.75
 30
0.0
 10
654.0
 20
177.53775
 30
0.0
 10
654.0
 20
176.656545
 30
0.0
  0
SPLINE
  5
24C
330
1F
100
AcDbEntity
  8
0
 62
     7
100
AcDbSpline
210
0.0
220
0.0
230
1.0
 70
     8
 71
     3
 72
     8
 73
     4
 74
     0
 42
0.000000001
 43
0.0000001
 40
0.0
 40
0.0
 40
0.0
 40
0.0
 40
1.0
 40
1.0
 40
1.0
 40
1.0
 10
654.0
 20
176.656545
 30
0.0
 10
654.0
 20
175.811512
 30
0.0
 10
652.679467
 20
175.513328
 30
0.0
 10
648.1875
 20
175.344045
 30
0.0
  0
LWPOLYLINE
  5
24D
330
1F
100
AcDbEntity
  8
0
 62
     7
100
AcDbPolyline
 90
        3
 70
     0
 43
0.0
 10
639.75
 20
165.375
 10
639.75
 20
177.75
 10
646.875
 20
177.75
  0
SPLINE
  5
24E
330
1F
100
AcDbEntity
  8
0
 62
     7
100
AcDbSpline
210
0.0
220
0.0
230
1.0
 70
     8
 71
     3
 72
     8
 73
     4
 74
     0
 42
0.000000001
 43
0.0000001
 40
0.0
 40
0.0
 40
0.0
 40
0.0
 40
1.0
 40
1.0
 40
1.0
 40
1.0
 10
648.1875
 20
167.405955
 30
0.0
 10
652.679467
 20
167.236672
 30
0.0
 10
654.0
 20
166.938488
 30
0.0
 10
654.0
 20
166.093455
 30
0.0
  0
SPLINE
  5
24F
330
1F
100
AcDbEntity
  8
0
 62
     7
100
AcDbSpline
210
0.0
220
0.0
230
1.0
 70
     8
 71
     3
 72
     8
 73
     4
 74
     0
 42
0.000000001
 43
0.0000001
 40
0.0
 40
0.0
 40
0.0
 40
0.0
 40
1.0
 40
1.0
 40
1.0
 40
1.0
 10
654.0
 20
166.093455
 30
0.0
 10
654.0
 20
165.226635
 30
0.0
 10
652.756395
 20
165.0
 30
0.0
 10
648.0
 20
165.0
 30
0.0
  0
LWPOLYLINE
  5
250
330
1F
100
AcDbEntity
  8
0
 62
     7
100
AcDbPolyline
 90
        5
 70
     0
 43
0.0
 10
648.1875
 20
175.344045
 10
642.375
 20
175.125
 10
642.375
 20
171.375
 10
642.375
 20
167.625
 10
648.1875
 20
167.405955
  0
SPLINE
  5
251
330
1F
100
AcDbEntity
  8
0
 62
     7
100
AcDbSpline
210
0.0
220
0.0
230
1.0
 70
     8
 71
     3
 72
     8
 73
     4
 74
     0
 42
0.000000001
 43
0.0000001
 40
0.0
 40
0.0
 40
0.0
 40
0.0
 40
1.0
 40
1.0
 40
1.0
 40
1.0
 10
648.0
 20
155.25
 30
0.0
 10
652.83333
 20
155.25
 30
0.0
 10
654.0
 20
155.031248
 30
0.0
 10
654.0
 20
154.125
 30
0.0
  0
SPLINE
  5
252
330
1F
100
AcDbEntity
  8
0
 62
     7
100
AcDbSpline
210
0.0
220
0.0
230
1.0
 70
     8
 71
     3
 72
     8
 73
     4
 74
     0
 42
0.000000001
 43
0.0000001
 40
0.0
 40
0.0
 40
0.0
 40
0.0
 40
1.0
 40
1.0
 40
1.0
 40
1.0
 10
654.0
 20
154.125
 30
0.0
 10
654.0
 20
153.203948
 30
0.0
 10
652.708335
 20
153.0
 30
0.0
 10
646.875
 20
153.0
 30
0.0
  0
LWPOLYLINE
  5
253
330
1F
100
AcDbEntity
  8
0
 62
     7
100
AcDbPolyline
 90
        5
 70
     0
 43
0.0
 10
648.0
 20
165.0
 10
642.0
 20
165.0
 10
642.0
 20
160.125
 10
642.0
 20
155.25
 10
648.0
 20
155.25
  0
SPLINE
  5
254
330
1F
100
AcDbEntity
  8
0
 62
     7
100
AcDbSpline
210
0.0
220
0.0
230
1.0
 70
     8
 71
     3
 72
     8
 73
     4
 74
     0
 42
0.000000001
 43
0.0000001
 40
0.0
 40
0.0
 40
0.0
 40
0.0
 40
1.0
 40
1.0
 40
1.0
 40
1.0
 10
657.75
 20
154.34262
 30
0.0
 10
657.75
 20
155.750003
 30
0.0
 10
659.703945
 20
170.981408
 30
0.0
 10
660.464152
 20
175.5
 30
0.0
  0
SPLINE
  5
255
330
1F
100
AcDbEntity
  8
0
 62
     7
100
AcDbSpline
210
0.0
220
0.0
230
1.0
 70
     8
 71
     3
 72
     8
 73
     4
 74
     0
 42
0.000000001
 43
0.0000001
 40
0.0
 40
0.0
 40
0.0
 40
0.0
 40
1.0
 40
1.0
 40
1.0
 40
1.0
 10
660.464152
 20
175.5
 30
0.0
 10
660.890738
 20
178.035607
 30
0.0
 10
661.0842
 20
177.769605
 30
0.0
 10
666.144953
 20
167.689118
 30
0.0
  0
LWPOLYLINE
  5
256
330
1F
100
AcDbEntity
  8
0
 62
     7
100
AcDbPolyline
 90
        3
 70
     0
 43
0.0
 10
646.875
 20
153.0
 10
639.75
 20
153.0
 10
639.75
 20
165.375
  0
SPLINE
  5
257
330
1F
100
AcDbEntity
  8
0
 62
     7
100
AcDbSpline
210
0.0
220
0.0
230
1.0
 70
     8
 71
     3
 72
     8
 73
     4
 74
     0
 42
0.000000001
 43
0.0000001
 40
0.0
 40
0.0
 40
0.0
 40
0.0
 40
1.0
 40
1.0
 40
1.0
 40
1.0
 10
676.503473
 20
167.689118
 30
0.0
 10
679.319107
 20
173.428853
 30
0.0
 10
681.68823
 20
177.95625
 30
0.0
 10
681.768188
 20
177.75
 30
0.0
  0
SPLINE
  5
258
330
1F
100
AcDbEntity
  8
0
 62
     7
100
AcDbSpline
210
0.0
220
0.0
230
1.0
 70
     8
 71
     3
 72
     8
 73
     4
 74
     0
 42
0.000000001
 43
0.0000001
 40
0.0
 40
0.0
 40
0.0
 40
0.0
 40
1.0
 40
1.0
 40
1.0
 40
1.0
 10
681.768188
 20
177.75
 30
0.0
 10
681.848138
 20
177.54375
 30
0.0
 10
682.655505
 20
171.890625
 30
0.0
 10
683.56233
 20
165.1875
 30
0.0
  0
SPLINE
  5
259
330
1F
100
AcDbEntity
  8
0
 62
     7
100
AcDbSpline
210
0.0
220
0.0
230
1.0
 70
     8
 71
     3
 72
     8
 73
     4
 74
     0
 42
0.000000001
 43
0.0000001
 40
0.0
 40
0.0
 40
0.0
 40
0.0
 40
1.0
 40
1.0
 40
1.0
 40
1.0
 10
683.56233
 20
165.1875
 30
0.0
 10
685.059495
 20
154.120673
 30
0.0
 10
685.09917
 20
153.0
 30
0.0
 10
683.993805
 20
153.0
 30
0.0
  0
SPLINE
  5
25A
330
1F
100
AcDbEntity
  8
0
 62
     7
100
AcDbSpline
210
0.0
220
0.0
230
1.0
 70
     8
 71
     3
 72
     8
 73
     4
 74
     0
 42
0.000000001
 43
0.0000001
 40
0.0
 40
0.0
 40
0.0
 40
0.0
 40
1.0
 40
1.0
 40
1.0
 40
1.0
 10
683.993805
 20
153.0
 30
0.0
 10
683.004405
 20
153.0
 30
0.0
 10
682.56333
 20
154.649865
 30
0.0
 10
681.637875
 20
161.8125
 30
0.0
  0
LWPOLYLINE
  5
25B
330
1F
100
AcDbEntity
  8
0
 62
     7
100
AcDbPolyline
 90
        3
 70
     0
 43
0.0
 10
666.144953
 20
167.689118
 10
671.38413
 20
157.253235
 10
676.503473
 20
167.689118
  0
SPLINE
  5
25C
330
1F
100
AcDbEntity
  8
0
 62
     7
100
AcDbSpline
210
0.0
220
0.0
230
1.0
 70
     8
 71
     3
 72
     8
 73
     4
 74
     0
 42
0.000000001
 43
0.0000001
 40
0.0
 40
0.0
 40
0.0
 40
0.0
 40
1.0
 40
1.0
 40
1.0
 40
1.0
 10
676.222725
 20
161.8125
 30
0.0
 10
673.870635
 20
156.965625
 30
0.0
 10
671.692935
 20
153.0
 30
0.0
 10
671.383395
 20
153.0
 30
0.0
  0
SPLINE
  5
25D
330
1F
100
AcDbEntity
  8
0
 62
     7
100
AcDbSpline
210
0.0
220
0.0
230
1.0
 70
     8
 71
     3
 72
     8
 73
     4
 74
     0
 42
0.000000001
 43
0.0000001
 40
0.0
 40
0.0
 40
0.0
 40
0.0
 40
1.0
 40
1.0
 40
1.0
 40
1.0
 10
671.383395
 20
153.0
 30
0.0
 10
671.073847
 20
153.0
 30
0.0
 10
668.998147
 20
156.6936
 30
0.0
 10
666.770722
 20
161.208008
 30
0.0
  0
SPLINE
  5
25E
330
1F
100
AcDbEntity
  8
0
 62
     7
100
AcDbSpline
210
0.0
220
0.0
230
1.0
 70
     8
 71
     3
 72
     8
 73
     4
 74
     0
 42
0.000000001
 43
0.0000001
 40
0.0
 40
0.0
 40
0.0
 40
0.0
 40
1.0
 40
1.0
 40
1.0
 40
1.0
 10
666.770722
 20
161.208008
 30
0.0
 10
664.543297
 20
165.722408
 30
0.0
 10
662.496607
 20
169.277407
 30
0.0
 10
662.222512
 20
169.108012
 30
0.0
  0
SPLINE
  5
25F
330
1F
100
AcDbEntity
  8
0
 62
     7
100
AcDbSpline
210
0.0
220
0.0
230
1.0
 70
     8
 71
     3
 72
     8
 73
     4
 74
     0
 42
0.000000001
 43
0.0000001
 40
0.0
 40
0.0
 40
0.0
 40
0.0
 40
1.0
 40
1.0
 40
1.0
 40
1.0
 10
662.222512
 20
169.108012
 30
0.0
 10
661.948425
 20
168.938617
 30
0.0
 10
661.302855
 20
165.245018
 30
0.0
 10
660.78792
 20
160.900013
 30
0.0
  0
SPLINE
  5
260
330
1F
100
AcDbEntity
  8
0
 62
     7
100
AcDbSpline
210
0.0
220
0.0
230
1.0
 70
     8
 71
     3
 72
     8
 73
     4
 74
     0
 42
0.000000001
 43
0.0000001
 40
0.0
 40
0.0
 40
0.0
 40
0.0
 40
1.0
 40
1.0
 40
1.0
 40
1.0
 10
660.78792
 20
160.900013
 30
0.0
 10
660.09711
 20
155.071073
 30
0.0
 10
659.576175
 20
153.0
 30
0.0
 10
658.800833
 20
153.0
 30
0.0
  0
SPLINE
  5
261
330
1F
100
AcDbEntity
  8
0
 62
     7
100
AcDbSpline
210
0.0
220
0.0
230
1.0
 70
     8
 71
     3
 72
     8
 73
     4
 74
     0
 42
0.000000001
 43
0.0000001
 40
0.0
 40
0.0
 40
0.0
 40
0.0
 40
1.0
 40
1.0
 40
1.0
 40
1.0
 10
658.800833
 20
153.0
 30
0.0
 10
658.222875
 20
153.0
 30
0.0
 10
657.75
 20
153.604177
 30
0.0
 10
657.75
 20
154.34262
 30
0.0
  0
LWPOLYLINE
  5
262
330
1F
100
AcDbEntity
  8
0
 62
     7
100
AcDbPolyline
 90
        3
 70
     0
 43
0.0
 10
681.637875
 20
161.8125
 10
680.499247
 20
170.625
 10
676.222725
 20
161.8125
  0
LWPOLYLINE
  5
263
330
1F
100
AcDbEntity
  8
0
 62
     7
100
AcDbPolyline
 90
        2
 70
     1
 43
0.0
 10
657.75
 20
154.34262
 10
657.75
 20
154.34262
  0
SPLINE
  5
264
330
1F
100
AcDbEntity
  8
0
 62
     7
100
AcDbSpline
210
0.0
220
0.0
230
1.0
 70
     8
 71
     3
 72
     8
 73
     4
 74
     0
 42
0.000000001
 43
0.0000001
 40
0.0
 40
0.0
 40
0.0
 40
0.0
 40
1.0
 40
1.0
 40
1.0
 40
1.0
 10
697.125
 20
177.75
 30
0.0
 10
702.958335
 20
177.75
 30
0.0
 10
704.25
 20
177.546052
 30
0.0
 10
704.25
 20
176.625
 30
0.0
  0
SPLINE
  5
265
330
1F
100
AcDbEntity
  8
0
 62
     7
100
AcDbSpline
210
0.0
220
0.0
230
1.0
 70
     8
 71
     3
 72
     8
 73
     4
 74
     0
 42
0.000000001
 43
0.0000001
 40
0.0
 40
0.0
 40
0.0
 40
0.0
 40
1.0
 40
1.0
 40
1.0
 40
1.0
 10
704.25
 20
176.625
 30
0.0
 10
704.25
 20
175.718752
 30
0.0
 10
703.08333
 20
175.5
 30
0.0
 10
698.25
 20
175.5
 30
0.0
  0
LWPOLYLINE
  5
266
330
1F
100
AcDbEntity
  8
0
 62
     7
100
AcDbPolyline
 90
        3
 70
     0
 43
0.0
 10
690.0
 20
165.375
 10
690.0
 20
177.75
 10
697.125
 20
177.75
  0
SPLINE
  5
267
330
1F
100
AcDbEntity
  8
0
 62
     7
100
AcDbSpline
210
0.0
220
0.0
230
1.0
 70
     8
 71
     3
 72
     8
 73
     4
 74
     0
 42
0.000000001
 43
0.0000001
 40
0.0
 40
0.0
 40
0.0
 40
0.0
 40
1.0
 40
1.0
 40
1.0
 40
1.0
 10
697.875
 20
167.25
 30
0.0
 10
702.375
 20
167.25
 30
0.0
 10
703.5
 20
167.025
 30
0.0
 10
703.5
 20
166.125
 30
0.0
  0
SPLINE
  5
268
330
1F
100
AcDbEntity
  8
0
 62
     7
100
AcDbSpline
210
0.0
220
0.0
230
1.0
 70
     8
 71
     3
 72
     8
 73
     4
 74
     0
 42
0.000000001
 43
0.0000001
 40
0.0
 40
0.0
 40
0.0
 40
0.0
 40
1.0
 40
1.0
 40
1.0
 40
1.0
 10
703.5
 20
166.125
 30
0.0
 10
703.5
 20
165.225
 30
0.0
 10
702.375
 20
165.0
 30
0.0
 10
697.875
 20
165.0
 30
0.0
  0
LWPOLYLINE
  5
269
330
1F
100
AcDbEntity
  8
0
 62
     7
100
AcDbPolyline
 90
        5
 70
     0
 43
0.0
 10
698.25
 20
175.5
 10
692.25
 20
175.5
 10
692.25
 20
171.375
 10
692.25
 20
167.25
 10
697.875
 20
167.25
  0
SPLINE
  5
26A
330
1F
100
AcDbEntity
  8
0
 62
     7
100
AcDbSpline
210
0.0
220
0.0
230
1.0
 70
     8
 71
     3
 72
     8
 73
     4
 74
     0
 42
0.000000001
 43
0.0000001
 40
0.0
 40
0.0
 40
0.0
 40
0.0
 40
1.0
 40
1.0
 40
1.0
 40
1.0
 10
697.875
 20
155.25
 30
0.0
 10
702.375
 20
155.25
 30
0.0
 10
703.5
 20
155.025
 30
0.0
 10
703.5
 20
154.125
 30
0.0
  0
SPLINE
  5
26B
330
1F
100
AcDbEntity
  8
0
 62
     7
100
AcDbSpline
210
0.0
220
0.0
230
1.0
 70
     8
 71
     3
 72
     8
 73
     4
 74
     0
 42
0.000000001
 43
0.0000001
 40
0.0
 40
0.0
 40
0.0
 40
0.0
 40
1.0
 40
1.0
 40
1.0
 40
1.0
 10
703.5
 20
154.125
 30
0.0
 10
703.5
 20
153.208335
 30
0.0
 10
702.249998
 20
153.0
 30
0.0
 10
696.75
 20
153.0
 30
0.0
  0
LWPOLYLINE
  5
26C
330
1F
100
AcDbEntity
  8
0
 62
     7
100
AcDbPolyline
 90
        5
 70
     0
 43
0.0
 10
697.875
 20
165.0
 10
692.25
 20
165.0
 10
692.25
 20
160.125
 10
692.25
 20
155.25
 10
697.875
 20
155.25
  0
SPLINE
  5
26D
330
1F
100
AcDbEntity
  8
0
 62
     7
100
AcDbSpline
210
0.0
220
0.0
230
1.0
 70
     8
 71
     3
 72
     8
 73
     4
 74
     0
 42
0.000000001
 43
0.0000001
 40
0.0
 40
0.0
 40
0.0
 40
0.0
 40
1.0
 40
1.0
 40
1.0
 40
1.0
 10
708.75
 20
165.09183
 30
0.0
 10
708.75
 20
174.684225
 30
0.0
 10
708.943785
 20
177.021308
 30
0.0
 10
709.6875
 20
176.398192
 30
0.0
  0
SPLINE
  5
26E
330
1F
100
AcDbEntity
  8
0
 62
     7
100
AcDbSpline
210
0.0
220
0.0
230
1.0
 70
     8
 71
     3
 72
     8
 73
     4
 74
     0
 42
0.000000001
 43
0.0000001
 40
0.0
 40
0.0
 40
0.0
 40
0.0
 40
1.0
 40
1.0
 40
1.0
 40
1.0
 10
709.6875
 20
176.398192
 30
0.0
 10
710.203125
 20
175.966178
 30
0.0
 10
713.83125
 20
171.906202
 30
0.0
 10
717.75
 20
167.376023
 30
0.0
  0
LWPOLYLINE
  5
26F
330
1F
100
AcDbEntity
  8
0
 62
     7
100
AcDbPolyline
 90
        3
 70
     0
 43
0.0
 10
696.75
 20
153.0
 10
690.0
 20
153.0
 10
690.0
 20
165.375
  0
SPLINE
  5
270
330
1F
100
AcDbEntity
  8
0
 62
     7
100
AcDbSpline
210
0.0
220
0.0
230
1.0
 70
     8
 71
     3
 72
     8
 73
     4
 74
     0
 42
0.000000001
 43
0.0000001
 40
0.0
 40
0.0
 40
0.0
 40
0.0
 40
1.0
 40
1.0
 40
1.0
 40
1.0
 10
725.08491
 20
168.444668
 30
0.0
 10
725.256173
 20
176.036835
 30
0.0
 10
725.497808
 20
177.75
 30
0.0
 10
726.39741
 20
177.75
 30
0.0
  0
SPLINE
  5
271
330
1F
100
AcDbEntity
  8
0
 62
     7
100
AcDbSpline
210
0.0
220
0.0
230
1.0
 70
     8
 71
     3
 72
     8
 73
     4
 74
     0
 42
0.000000001
 43
0.0000001
 40
0.0
 40
0.0
 40
0.0
 40
0.0
 40
1.0
 40
1.0
 40
1.0
 40
1.0
 10
726.39741
 20
177.75
 30
0.0
 10
727.324642
 20
177.75
 30
0.0
 10
727.496033
 20
175.752015
 30
0.0
 10
727.475048
 20
165.1875
 30
0.0
  0
SPLINE
  5
272
330
1F
100
AcDbEntity
  8
0
 62
     7
100
AcDbSpline
210
0.0
220
0.0
230
1.0
 70
     8
 71
     3
 72
     8
 73
     4
 74
     0
 42
0.000000001
 43
0.0000001
 40
0.0
 40
0.0
 40
0.0
 40
0.0
 40
1.0
 40
1.0
 40
1.0
 40
1.0
 10
727.475048
 20
165.1875
 30
0.0
 10
727.451273
 20
153.219195
 30
0.0
 10
727.389195
 20
152.697487
 30
0.0
 10
726.162548
 20
154.157572
 30
0.0
  0
SPLINE
  5
273
330
1F
100
AcDbEntity
  8
0
 62
     7
100
AcDbSpline
210
0.0
220
0.0
230
1.0
 70
     8
 71
     3
 72
     8
 73
     4
 74
     0
 42
0.000000001
 43
0.0000001
 40
0.0
 40
0.0
 40
0.0
 40
0.0
 40
1.0
 40
1.0
 40
1.0
 40
1.0
 10
726.162548
 20
154.157572
 30
0.0
 10
725.454398
 20
155.00049
 30
0.0
 10
721.8375
 20
159.170272
 30
0.0
 10
718.125
 20
163.423755
 30
0.0
  0
LWPOLYLINE
  5
274
330
1F
100
AcDbEntity
  8
0
 62
     7
100
AcDbPolyline
 90
        3
 70
     0
 43
0.0
 10
717.75
 20
167.376023
 10
724.875
 20
159.139335
 10
725.08491
 20
168.444668
  0
SPLINE
  5
275
330
1F
100
AcDbEntity
  8
0
 62
     7
100
AcDbSpline
210
0.0
220
0.0
230
1.0
 70
     8
 71
     3
 72
     8
 73
     4
 74
     0
 42
0.000000001
 43
0.0000001
 40
0.0
 40
0.0
 40
0.0
 40
0.0
 40
1.0
 40
1.0
 40
1.0
 40
1.0
 10
711.164415
 20
162.078683
 30
0.0
 10
710.993002
 20
154.688828
 30
0.0
 10
710.748855
 20
153.0
 30
0.0
 10
709.851915
 20
153.0
 30
0.0
  0
SPLINE
  5
276
330
1F
100
AcDbEntity
  8
0
 62
     7
100
AcDbSpline
210
0.0
220
0.0
230
1.0
 70
     8
 71
     3
 72
     8
 73
     4
 74
     0
 42
0.000000001
 43
0.0000001
 40
0.0
 40
0.0
 40
0.0
 40
0.0
 40
1.0
 40
1.0
 40
1.0
 40
1.0
 10
709.851915
 20
153.0
 30
0.0
 10
708.92826
 20
153.0
 30
0.0
 10
708.75
 20
154.95612
 30
0.0
 10
708.75
 20
165.09183
 30
0.0
  0
LWPOLYLINE
  5
277
330
1F
100
AcDbEntity
  8
0
 62
     7
100
AcDbPolyline
 90
        3
 70
     0
 43
0.0
 10
718.125
 20
163.423755
 10
711.375
 20
171.157373
 10
711.164415
 20
162.078683
  0
LWPOLYLINE
  5
278
330
1F
100
AcDbEntity
  8
0
 62
     7
100
AcDbPolyline
 90
        2
 70
     1
 43
0.0
 10
708.75
 20
165.09183
 10
708.75
 20
165.09183
  0
SPLINE
  5
279
330
1F
100
AcDbEntity
  8
0
 62
     7
100
AcDbSpline
210
0.0
220
0.0
230
1.0
 70
     8
 71
     3
 72
     8
 73
     4
 74
     0
 42
0.000000001
 43
0.0000001
 40
0.0
 40
0.0
 40
0.0
 40
0.0
 40
1.0
 40
1.0
 40
1.0
 40
1.0
 10
733.875
 20
175.5
 30
0.0
 10
732.04167
 20
175.5
 30
0.0
 10
731.25
 20
175.839285
 30
0.0
 10
731.25
 20
176.625
 30
0.0
  0
SPLINE
  5
27A
330
1F
100
AcDbEntity
  8
0
 62
     7
100
AcDbSpline
210
0.0
220
0.0
230
1.0
 70
     8
 71
     3
 72
     8
 73
     4
 74
     0
 42
0.000000001
 43
0.0000001
 40
0.0
 40
0.0
 40
0.0
 40
0.0
 40
1.0
 40
1.0
 40
1.0
 40
1.0
 10
731.25
 20
176.625
 30
0.0
 10
731.25
 20
177.536767
 30
0.0
 10
732.458333
 20
177.75
 30
0.0
 10
737.625
 20
177.75
 30
0.0
  0
SPLINE
  5
27B
330
1F
100
AcDbEntity
  8
0
 62
     7
100
AcDbSpline
210
0.0
220
0.0
230
1.0
 70
     8
 71
     3
 72
     8
 73
     4
 74
     0
 42
0.000000001
 43
0.0000001
 40
0.0
 40
0.0
 40
0.0
 40
0.0
 40
1.0
 40
1.0
 40
1.0
 40
1.0
 10
737.625
 20
177.75
 30
0.0
 10
742.66671
 20
177.75
 30
0.0
 10
744.0
 20
177.524655
 30
0.0
 10
744.0
 20
176.67252
 30
0.0
  0
SPLINE
  5
27C
330
1F
100
AcDbEntity
  8
0
 62
     7
100
AcDbSpline
210
0.0
220
0.0
230
1.0
 70
     8
 71
     3
 72
     8
 73
     4
 74
     0
 42
0.000000001
 43
0.0000001
 40
0.0
 40
0.0
 40
0.0
 40
0.0
 40
1.0
 40
1.0
 40
1.0
 40
1.0
 10
744.0
 20
176.67252
 30
0.0
 10
744.0
 20
176.00511
 30
0.0
 10
743.072333
 20
175.505595
 30
0.0
 10
741.5625
 20
175.36002
 30
0.0
  0
LWPOLYLINE
  5
27D
330
1F
100
AcDbEntity
  8
0
 62
     7
100
AcDbPolyline
 90
        3
 70
     0
 43
0.0
 10
736.5
 20
164.25
 10
736.5
 20
175.5
 10
733.875
 20
175.5
  0
SPLINE
  5
27E
330
1F
100
AcDbEntity
  8
0
 62
     7
100
AcDbSpline
210
0.0
220
0.0
230
1.0
 70
     8
 71
     3
 72
     8
 73
     4
 74
     0
 42
0.000000001
 43
0.0000001
 40
0.0
 40
0.0
 40
0.0
 40
0.0
 40
1.0
 40
1.0
 40
1.0
 40
1.0
 10
738.917452
 20
164.0625
 30
0.0
 10
738.745778
 20
154.912297
 30
0.0
 10
738.518895
 20
153.0
 30
0.0
 10
737.604952
 20
153.0
 30
0.0
  0
SPLINE
  5
27F
330
1F
100
AcDbEntity
  8
0
 62
     7
100
AcDbSpline
210
0.0
220
0.0
230
1.0
 70
     8
 71
     3
 72
     8
 73
     4
 74
     0
 42
0.000000001
 43
0.0000001
 40
0.0
 40
0.0
 40
0.0
 40
0.0
 40
1.0
 40
1.0
 40
1.0
 40
1.0
 10
737.604952
 20
153.0
 30
0.0
 10
736.680795
 20
153.0
 30
0.0
 10
736.5
 20
154.840725
 30
0.0
 10
736.5
 20
164.25
 30
0.0
  0
LWPOLYLINE
  5
280
330
1F
100
AcDbEntity
  8
0
 62
     7
100
AcDbPolyline
 90
        3
 70
     0
 43
0.0
 10
741.5625
 20
175.36002
 10
739.125
 20
175.125
 10
738.917452
 20
164.0625
  0
SPLINE
  5
281
330
1F
100
AcDbEntity
  8
0
 62
     7
100
AcDbSpline
210
0.0
220
0.0
230
1.0
 70
     8
 71
     3
 72
     8
 73
     4
 74
     0
 42
0.000000001
 43
0.0000001
 40
0.0
 40
0.0
 40
0.0
 40
0.0
 40
1.0
 40
1.0
 40
1.0
 40
1.0
 10
594.80562
 20
192.1875
 30
0.0
 10
594.83622
 20
192.703125
 30
0.0
 10
595.426838
 20
194.382653
 30
0.0
 10
596.11812
 20
195.919793
 30
0.0
  0
SPLINE
  5
282
330
1F
100
AcDbEntity
  8
0
 62
     7
100
AcDbSpline
210
0.0
220
0.0
230
1.0
 70
     8
 71
     3
 72
     8
 73
     4
 74
     0
 42
0.000000001
 43
0.0000001
 40
0.0
 40
0.0
 40
0.0
 40
0.0
 40
1.0
 40
1.0
 40
1.0
 40
1.0
 10
596.11812
 20
195.919793
 30
0.0
 10
597.021435
 20
197.928398
 30
0.0
 10
597.657615
 20
198.537203
 30
0.0
 10
598.379647
 20
198.08403
 30
0.0
  0
SPLINE
  5
283
330
1F
100
AcDbEntity
  8
0
 62
     7
100
AcDbSpline
210
0.0
220
0.0
230
1.0
 70
     8
 71
     3
 72
     8
 73
     4
 74
     0
 42
0.000000001
 43
0.0000001
 40
0.0
 40
0.0
 40
0.0
 40
0.0
 40
1.0
 40
1.0
 40
1.0
 40
1.0
 10
598.379647
 20
198.08403
 30
0.0
 10
599.192902
 20
197.573595
 30
0.0
 10
599.082847
 20
196.862595
 30
0.0
 10
597.8019
 20
194.351738
 30
0.0
  0
SPLINE
  5
284
330
1F
100
AcDbEntity
  8
0
 62
     7
100
AcDbSpline
210
0.0
220
0.0
230
1.0
 70
     8
 71
     3
 72
     8
 73
     4
 74
     0
 42
0.000000001
 43
0.0000001
 40
0.0
 40
0.0
 40
0.0
 40
0.0
 40
1.0
 40
1.0
 40
1.0
 40
1.0
 10
597.8019
 20
194.351738
 30
0.0
 10
596.283285
 20
191.375003
 30
0.0
 10
594.6891
 20
190.223505
 30
0.0
 10
594.80562
 20
192.1875
 30
0.0
  0
LWPOLYLINE
  5
285
330
1F
100
AcDbEntity
  8
0
 62
     7
100
AcDbPolyline
 90
        2
 70
     1
 43
0.0
 10
736.5
 20
164.25
 10
736.5
 20
164.25
  0
SPLINE
  5
286
330
1F
100
AcDbEntity
  8
0
 62
     7
100
AcDbSpline
210
0.0
220
0.0
230
1.0
 70
     8
 71
     3
 72
     8
 73
     4
 74
     0
 42
0.000000001
 43
0.0000001
 40
0.0
 40
0.0
 40
0.0
 40
0.0
 40
1.0
 40
1.0
 40
1.0
 40
1.0
 10
86.22747
 20
195.1875
 30
0.0
 10
81.526185
 20
197.562518
 30
0.0
 10
79.5
 20
200.894333
 30
0.0
 10
79.5
 20
206.25
 30
0.0
  0
SPLINE
  5
287
330
1F
100
AcDbEntity
  8
0
 62
     7
100
AcDbSpline
210
0.0
220
0.0
230
1.0
 70
     8
 71
     3
 72
     8
 73
     4
 74
     0
 42
0.000000001
 43
0.0000001
 40
0.0
 40
0.0
 40
0.0
 40
0.0
 40
1.0
 40
1.0
 40
1.0
 40
1.0
 10
79.5
 20
206.25
 30
0.0
 10
79.5
 20
213.85326
 30
0.0
 10
84.61917
 20
219.002235
 30
0.0
 10
92.17341
 20
218.997195
 30
0.0
  0
SPLINE
  5
288
330
1F
100
AcDbEntity
  8
0
 62
     7
100
AcDbSpline
210
0.0
220
0.0
230
1.0
 70
     8
 71
     3
 72
     8
 73
     4
 74
     0
 42
0.000000001
 43
0.0000001
 40
0.0
 40
0.0
 40
0.0
 40
0.0
 40
1.0
 40
1.0
 40
1.0
 40
1.0
 10
92.17341
 20
218.997195
 30
0.0
 10
97.109168
 20
218.994195
 30
0.0
 10
100.50999
 20
217.249395
 30
0.0
 10
102.754672
 20
213.569355
 30
0.0
  0
SPLINE
  5
289
330
1F
100
AcDbEntity
  8
0
 62
     7
100
AcDbSpline
210
0.0
220
0.0
230
1.0
 70
     8
 71
     3
 72
     8
 73
     4
 74
     0
 42
0.000000001
 43
0.0000001
 40
0.0
 40
0.0
 40
0.0
 40
0.0
 40
1.0
 40
1.0
 40
1.0
 40
1.0
 10
102.754672
 20
213.569355
 30
0.0
 10
105.950355
 20
208.3302
 30
0.0
 10
105.586965
 20
202.574917
 30
0.0
 10
101.787225
 20
198.247245
 30
0.0
  0
SPLINE
  5
28A
330
1F
100
AcDbEntity
  8
0
 62
     7
100
AcDbSpline
210
0.0
220
0.0
230
1.0
 70
     8
 71
     3
 72
     8
 73
     4
 74
     0
 42
0.000000001
 43
0.0000001
 40
0.0
 40
0.0
 40
0.0
 40
0.0
 40
1.0
 40
1.0
 40
1.0
 40
1.0
 10
101.787225
 20
198.247245
 30
0.0
 10
97.456177
 20
193.314458
 30
0.0
 10
92.04243
 20
192.24987
 30
0.0
 10
86.22747
 20
195.1875
 30
0.0
  0
LWPOLYLINE
  5
28B
330
1F
100
AcDbEntity
  8
0
 62
     7
100
AcDbPolyline
 90
        2
 70
     1
 43
0.0
 10
594.80562
 20
192.1875
 10
594.80562
 20
192.1875
  0
SPLINE
  5
28C
330
1F
100
AcDbEntity
  8
0
 62
     7
100
AcDbSpline
210
0.0
220
0.0
230
1.0
 70
     8
 71
     3
 72
     8
 73
     4
 74
     0
 42
0.000000001
 43
0.0000001
 40
0.0
 40
0.0
 40
0.0
 40
0.0
 40
1.0
 40
1.0
 40
1.0
 40
1.0
 10
96.273165
 20
196.784115
 30
0.0
 10
106.098705
 20
200.889488
 30
0.0
 10
103.791893
 20
215.54355
 30
0.0
 10
93.159263
 20
216.565215
 30
0.0
  0
SPLINE
  5
28D
330
1F
100
AcDbEntity
  8
0
 62
     7
100
AcDbSpline
210
0.0
220
0.0
230
1.0
 70
     8
 71
     3
 72
     8
 73
     4
 74
     0
 42
0.000000001
 43
0.0000001
 40
0.0
 40
0.0
 40
0.0
 40
0.0
 40
1.0
 40
1.0
 40
1.0
 40
1.0
 10
93.159263
 20
216.565215
 30
0.0
 10
86.386755
 20
217.215967
 30
0.0
 10
81.758288
 20
212.977575
 30
0.0
 10
81.752805
 20
206.120047
 30
0.0
  0
SPLINE
  5
28E
330
1F
100
AcDbEntity
  8
0
 62
     7
100
AcDbSpline
210
0.0
220
0.0
230
1.0
 70
     8
 71
     3
 72
     8
 73
     4
 74
     0
 42
0.000000001
 43
0.0000001
 40
0.0
 40
0.0
 40
0.0
 40
0.0
 40
1.0
 40
1.0
 40
1.0
 40
1.0
 10
81.752805
 20
206.120047
 30
0.0
 10
81.750555
 20
203.40372
 30
0.0
 10
82.205708
 20
202.073512
 30
0.0
 10
83.775315
 20
200.208135
 30
0.0
  0
SPLINE
  5
28F
330
1F
100
AcDbEntity
  8
0
 62
     7
100
AcDbSpline
210
0.0
220
0.0
230
1.0
 70
     8
 71
     3
 72
     8
 73
     4
 74
     0
 42
0.000000001
 43
0.0000001
 40
0.0
 40
0.0
 40
0.0
 40
0.0
 40
1.0
 40
1.0
 40
1.0
 40
1.0
 10
83.775315
 20
200.208135
 30
0.0
 10
87.25875
 20
196.068315
 30
0.0
 10
91.668525
 20
194.86017
 30
0.0
 10
96.273165
 20
196.784115
 30
0.0
  0
LWPOLYLINE
  5
290
330
1F
100
AcDbEntity
  8
0
 62
     7
100
AcDbPolyline
 90
        2
 70
     1
 43
0.0
 10
86.22747
 20
195.1875
 10
86.22747
 20
195.1875
  0
SPLINE
  5
291
330
1F
100
AcDbEntity
  8
0
 62
     7
100
AcDbSpline
210
0.0
220
0.0
230
1.0
 70
     8
 71
     3
 72
     8
 73
     4
 74
     0
 42
0.000000001
 43
0.0000001
 40
0.0
 40
0.0
 40
0.0
 40
0.0
 40
1.0
 40
1.0
 40
1.0
 40
1.0
 10
157.087815
 20
194.55495
 30
0.0
 10
152.172488
 20
196.69593
 30
0.0
 10
148.664445
 20
203.491027
 30
0.0
 10
149.67993
 20
208.904055
 30
0.0
  0
SPLINE
  5
292
330
1F
100
AcDbEntity
  8
0
 62
     7
100
AcDbSpline
210
0.0
220
0.0
230
1.0
 70
     8
 71
     3
 72
     8
 73
     4
 74
     0
 42
0.000000001
 43
0.0000001
 40
0.0
 40
0.0
 40
0.0
 40
0.0
 40
1.0
 40
1.0
 40
1.0
 40
1.0
 10
149.67993
 20
208.904055
 30
0.0
 10
150.844493
 20
215.1117
 30
0.0
 10
155.834393
 20
219.0
 30
0.0
 10
162.63618
 20
219.0
 30
0.0
  0
SPLINE
  5
293
330
1F
100
AcDbEntity
  8
0
 62
     7
100
AcDbSpline
210
0.0
220
0.0
230
1.0
 70
     8
 71
     3
 72
     8
 73
     4
 74
     0
 42
0.000000001
 43
0.0000001
 40
0.0
 40
0.0
 40
0.0
 40
0.0
 40
1.0
 40
1.0
 40
1.0
 40
1.0
 10
162.63618
 20
219.0
 30
0.0
 10
166.76916
 20
219.0
 30
0.0
 10
172.024995
 20
216.819622
 30
0.0
 10
172.807507
 20
214.78044
 30
0.0
  0
SPLINE
  5
294
330
1F
100
AcDbEntity
  8
0
 62
     7
100
AcDbSpline
210
0.0
220
0.0
230
1.0
 70
     8
 71
     3
 72
     8
 73
     4
 74
     0
 42
0.000000001
 43
0.0000001
 40
0.0
 40
0.0
 40
0.0
 40
0.0
 40
1.0
 40
1.0
 40
1.0
 40
1.0
 10
172.807507
 20
214.78044
 30
0.0
 10
173.515177
 20
212.936287
 30
0.0
 10
171.856747
 20
212.972767
 30
0.0
 10
169.071908
 20
214.86261
 30
0.0
  0
SPLINE
  5
295
330
1F
100
AcDbEntity
  8
0
 62
     7
100
AcDbSpline
210
0.0
220
0.0
230
1.0
 70
     8
 71
     3
 72
     8
 73
     4
 74
     0
 42
0.000000001
 43
0.0000001
 40
0.0
 40
0.0
 40
0.0
 40
0.0
 40
1.0
 40
1.0
 40
1.0
 40
1.0
 10
169.071908
 20
214.86261
 30
0.0
 10
161.871405
 20
219.748995
 30
0.0
 10
152.000002
 20
215.007022
 30
0.0
 10
152.000002
 20
206.66169
 30
0.0
  0
SPLINE
  5
296
330
1F
100
AcDbEntity
  8
0
 62
     7
100
AcDbSpline
210
0.0
220
0.0
230
1.0
 70
     8
 71
     3
 72
     8
 73
     4
 74
     0
 42
0.000000001
 43
0.0000001
 40
0.0
 40
0.0
 40
0.0
 40
0.0
 40
1.0
 40
1.0
 40
1.0
 40
1.0
 10
152.000002
 20
206.66169
 30
0.0
 10
152.000002
 20
197.65446
 30
0.0
 10
162.515168
 20
192.612742
 30
0.0
 10
169.3341
 20
198.35049
 30
0.0
  0
SPLINE
  5
297
330
1F
100
AcDbEntity
  8
0
 62
     7
100
AcDbSpline
210
0.0
220
0.0
230
1.0
 70
     8
 71
     3
 72
     8
 73
     4
 74
     0
 42
0.000000001
 43
0.0000001
 40
0.0
 40
0.0
 40
0.0
 40
0.0
 40
1.0
 40
1.0
 40
1.0
 40
1.0
 10
169.3341
 20
198.35049
 30
0.0
 10
170.741303
 20
199.534575
 30
0.0
 10
171.812363
 20
199.92498
 30
0.0
 10
172.495448
 20
199.502813
 30
0.0
  0
SPLINE
  5
298
330
1F
100
AcDbEntity
  8
0
 62
     7
100
AcDbSpline
210
0.0
220
0.0
230
1.0
 70
     8
 71
     3
 72
     8
 73
     4
 74
     0
 42
0.000000001
 43
0.0000001
 40
0.0
 40
0.0
 40
0.0
 40
0.0
 40
1.0
 40
1.0
 40
1.0
 40
1.0
 10
172.495448
 20
199.502813
 30
0.0
 10
175.0677
 20
197.913075
 30
0.0
 10
167.609895
 20
193.523347
 30
0.0
 10
162.375
 20
193.545825
 30
0.0
  0
SPLINE
  5
299
330
1F
100
AcDbEntity
  8
0
 62
     7
100
AcDbSpline
210
0.0
220
0.0
230
1.0
 70
     8
 71
     3
 72
     8
 73
     4
 74
     0
 42
0.000000001
 43
0.0000001
 40
0.0
 40
0.0
 40
0.0
 40
0.0
 40
1.0
 40
1.0
 40
1.0
 40
1.0
 10
162.375
 20
193.545825
 30
0.0
 10
160.725
 20
193.552575
 30
0.0
 10
158.345767
 20
194.007015
 30
0.0
 10
157.087815
 20
194.55495
 30
0.0
  0
LWPOLYLINE
  5
29A
330
1F
100
AcDbEntity
  8
0
 62
     7
100
AcDbPolyline
 90
        2
 70
     1
 43
0.0
 10
96.273165
 20
196.784115
 10
96.273165
 20
196.784115
  0
SPLINE
  5
29B
330
1F
100
AcDbEntity
  8
0
 62
     7
100
AcDbSpline
210
0.0
220
0.0
230
1.0
 70
     8
 71
     3
 72
     8
 73
     4
 74
     0
 42
0.000000001
 43
0.0000001
 40
0.0
 40
0.0
 40
0.0
 40
0.0
 40
1.0
 40
1.0
 40
1.0
 40
1.0
 10
212.611057
 20
194.5452
 30
0.0
 10
207.392513
 20
196.819065
 30
0.0
 10
203.99922
 20
203.16066
 30
0.0
 10
205.043715
 20
208.687523
 30
0.0
  0
SPLINE
  5
29C
330
1F
100
AcDbEntity
  8
0
 62
     7
100
AcDbSpline
210
0.0
220
0.0
230
1.0
 70
     8
 71
     3
 72
     8
 73
     4
 74
     0
 42
0.000000001
 43
0.0000001
 40
0.0
 40
0.0
 40
0.0
 40
0.0
 40
1.0
 40
1.0
 40
1.0
 40
1.0
 10
205.043715
 20
208.687523
 30
0.0
 10
206.263725
 20
215.14314
 30
0.0
 10
210.943515
 20
218.992793
 30
0.0
 10
217.57659
 20
218.997218
 30
0.0
  0
SPLINE
  5
29D
330
1F
100
AcDbEntity
  8
0
 62
     7
100
AcDbSpline
210
0.0
220
0.0
230
1.0
 70
     8
 71
     3
 72
     8
 73
     4
 74
     0
 42
0.000000001
 43
0.0000001
 40
0.0
 40
0.0
 40
0.0
 40
0.0
 40
1.0
 40
1.0
 40
1.0
 40
1.0
 10
217.57659
 20
218.997218
 30
0.0
 10
222.412785
 20
219.000218
 30
0.0
 10
225.762923
 20
217.186575
 30
0.0
 10
228.54465
 20
213.058763
 30
0.0
  0
SPLINE
  5
29E
330
1F
100
AcDbEntity
  8
0
 62
     7
100
AcDbSpline
210
0.0
220
0.0
230
1.0
 70
     8
 71
     3
 72
     8
 73
     4
 74
     0
 42
0.000000001
 43
0.0000001
 40
0.0
 40
0.0
 40
0.0
 40
0.0
 40
1.0
 40
1.0
 40
1.0
 40
1.0
 10
228.54465
 20
213.058763
 30
0.0
 10
230.920748
 20
209.532878
 30
0.0
 10
230.926403
 20
202.989683
 30
0.0
 10
228.556425
 20
199.423432
 30
0.0
  0
SPLINE
  5
29F
330
1F
100
AcDbEntity
  8
0
 62
     7
100
AcDbSpline
210
0.0
220
0.0
230
1.0
 70
     8
 71
     3
 72
     8
 73
     4
 74
     0
 42
0.000000001
 43
0.0000001
 40
0.0
 40
0.0
 40
0.0
 40
0.0
 40
1.0
 40
1.0
 40
1.0
 40
1.0
 10
228.556425
 20
199.423432
 30
0.0
 10
225.312802
 20
194.54253
 30
0.0
 10
217.85409
 20
192.260655
 30
0.0
 10
212.611035
 20
194.5452
 30
0.0
  0
LWPOLYLINE
  5
2A0
330
1F
100
AcDbEntity
  8
0
 62
     7
100
AcDbPolyline
 90
        2
 70
     1
 43
0.0
 10
157.087815
 20
194.55495
 10
157.087815
 20
194.55495
  0
SPLINE
  5
2A1
330
1F
100
AcDbEntity
  8
0
 62
     7
100
AcDbSpline
210
0.0
220
0.0
230
1.0
 70
     8
 71
     3
 72
     8
 73
     4
 74
     0
 42
0.000000001
 43
0.0000001
 40
0.0
 40
0.0
 40
0.0
 40
0.0
 40
1.0
 40
1.0
 40
1.0
 40
1.0
 10
221.46159
 20
196.778362
 30
0.0
 10
225.520635
 20
198.5079
 30
0.0
 10
227.463863
 20
201.240915
 30
0.0
 10
227.79207
 20
205.681755
 30
0.0
  0
SPLINE
  5
2A2
330
1F
100
AcDbEntity
  8
0
 62
     7
100
AcDbSpline
210
0.0
220
0.0
230
1.0
 70
     8
 71
     3
 72
     8
 73
     4
 74
     0
 42
0.000000001
 43
0.0000001
 40
0.0
 40
0.0
 40
0.0
 40
0.0
 40
1.0
 40
1.0
 40
1.0
 40
1.0
 10
227.79207
 20
205.681755
 30
0.0
 10
228.31743
 20
212.79021
 30
0.0
 10
223.72647
 20
217.250887
 30
0.0
 10
216.590737
 20
216.565237
 30
0.0
  0
SPLINE
  5
2A3
330
1F
100
AcDbEntity
  8
0
 62
     7
100
AcDbSpline
210
0.0
220
0.0
230
1.0
 70
     8
 71
     3
 72
     8
 73
     4
 74
     0
 42
0.000000001
 43
0.0000001
 40
0.0
 40
0.0
 40
0.0
 40
0.0
 40
1.0
 40
1.0
 40
1.0
 40
1.0
 10
216.590737
 20
216.565237
 30
0.0
 10
206.062702
 20
215.553622
 30
0.0
 10
203.649847
 20
201.022717
 30
0.0
 10
213.311392
 20
196.81608
 30
0.0
  0
SPLINE
  5
2A4
330
1F
100
AcDbEntity
  8
0
 62
     7
100
AcDbSpline
210
0.0
220
0.0
230
1.0
 70
     8
 71
     3
 72
     8
 73
     4
 74
     0
 42
0.000000001
 43
0.0000001
 40
0.0
 40
0.0
 40
0.0
 40
0.0
 40
1.0
 40
1.0
 40
1.0
 40
1.0
 10
213.311392
 20
196.81608
 30
0.0
 10
216.30003
 20
195.514822
 30
0.0
 10
218.4726
 20
195.504772
 30
0.0
 10
221.46159
 20
196.778355
 30
0.0
  0
LWPOLYLINE
  5
2A5
330
1F
100
AcDbEntity
  8
0
 62
     7
100
AcDbPolyline
 90
        2
 70
     1
 43
0.0
 10
212.611035
 20
194.5452
 10
212.611035
 20
194.5452
  0
SPLINE
  5
2A6
330
1F
100
AcDbEntity
  8
0
 62
     7
100
AcDbSpline
210
0.0
220
0.0
230
1.0
 70
     8
 71
     3
 72
     8
 73
     4
 74
     0
 42
0.000000001
 43
0.0000001
 40
0.0
 40
0.0
 40
0.0
 40
0.0
 40
1.0
 40
1.0
 40
1.0
 40
1.0
 10
263.431035
 20
194.493945
 30
0.0
 10
262.499362
 20
195.01137
 30
0.0
 10
261.188872
 20
196.217385
 30
0.0
 10
260.518837
 20
197.173987
 30
0.0
  0
SPLINE
  5
2A7
330
1F
100
AcDbEntity
  8
0
 62
     7
100
AcDbSpline
210
0.0
220
0.0
230
1.0
 70
     8
 71
     3
 72
     8
 73
     4
 74
     0
 42
0.000000001
 43
0.0000001
 40
0.0
 40
0.0
 40
0.0
 40
0.0
 40
1.0
 40
1.0
 40
1.0
 40
1.0
 10
260.518837
 20
197.173987
 30
0.0
 10
258.588735
 20
199.9296
 30
0.0
 10
260.661172
 20
200.47347
 30
0.0
 10
263.245177
 20
197.889458
 30
0.0
  0
SPLINE
  5
2A8
330
1F
100
AcDbEntity
  8
0
 62
     7
100
AcDbSpline
210
0.0
220
0.0
230
1.0
 70
     8
 71
     3
 72
     8
 73
     4
 74
     0
 42
0.000000001
 43
0.0000001
 40
0.0
 40
0.0
 40
0.0
 40
0.0
 40
1.0
 40
1.0
 40
1.0
 40
1.0
 10
263.245177
 20
197.889458
 30
0.0
 10
265.759582
 20
195.37506
 30
0.0
 10
267.920475
 20
195.170498
 30
0.0
 10
270.0
 20
197.250023
 30
0.0
  0
SPLINE
  5
2A9
330
1F
100
AcDbEntity
  8
0
 62
     7
100
AcDbSpline
210
0.0
220
0.0
230
1.0
 70
     8
 71
     3
 72
     8
 73
     4
 74
     0
 42
0.000000001
 43
0.0000001
 40
0.0
 40
0.0
 40
0.0
 40
0.0
 40
1.0
 40
1.0
 40
1.0
 40
1.0
 10
270.0
 20
197.250023
 30
0.0
 10
272.24133
 20
199.491353
 30
0.0
 10
271.85385
 20
201.660705
 30
0.0
 10
268.742107
 20
204.2925
 30
0.0
  0
SPLINE
  5
2AA
330
1F
100
AcDbEntity
  8
0
 62
     7
100
AcDbSpline
210
0.0
220
0.0
230
1.0
 70
     8
 71
     3
 72
     8
 73
     4
 74
     0
 42
0.000000001
 43
0.0000001
 40
0.0
 40
0.0
 40
0.0
 40
0.0
 40
1.0
 40
1.0
 40
1.0
 40
1.0
 10
268.742107
 20
204.2925
 30
0.0
 10
262.283895
 20
209.7546
 30
0.0
 10
261.0
 20
211.310527
 30
0.0
 10
261.0
 20
213.675
 30
0.0
  0
SPLINE
  5
2AB
330
1F
100
AcDbEntity
  8
0
 62
     7
100
AcDbSpline
210
0.0
220
0.0
230
1.0
 70
     8
 71
     3
 72
     8
 73
     4
 74
     0
 42
0.000000001
 43
0.0000001
 40
0.0
 40
0.0
 40
0.0
 40
0.0
 40
1.0
 40
1.0
 40
1.0
 40
1.0
 10
261.0
 20
213.675
 30
0.0
 10
261.0
 20
216.895702
 30
0.0
 10
263.305095
 20
219.0
 30
0.0
 10
266.833118
 20
219.0
 30
0.0
  0
SPLINE
  5
2AC
330
1F
100
AcDbEntity
  8
0
 62
     7
100
AcDbSpline
210
0.0
220
0.0
230
1.0
 70
     8
 71
     3
 72
     8
 73
     4
 74
     0
 42
0.000000001
 43
0.0000001
 40
0.0
 40
0.0
 40
0.0
 40
0.0
 40
1.0
 40
1.0
 40
1.0
 40
1.0
 10
266.833118
 20
219.0
 30
0.0
 10
269.924467
 20
219.0
 30
0.0
 10
273.0
 20
217.295617
 30
0.0
 10
273.0
 20
215.582475
 30
0.0
  0
SPLINE
  5
2AD
330
1F
100
AcDbEntity
  8
0
 62
     7
100
AcDbSpline
210
0.0
220
0.0
230
1.0
 70
     8
 71
     3
 72
     8
 73
     4
 74
     0
 42
0.000000001
 43
0.0000001
 40
0.0
 40
0.0
 40
0.0
 40
0.0
 40
1.0
 40
1.0
 40
1.0
 40
1.0
 10
273.0
 20
215.582475
 30
0.0
 10
273.0
 20
214.167442
 30
0.0
 10
271.188353
 20
214.19313
 30
0.0
 10
270.0
 20
215.625
 30
0.0
  0
SPLINE
  5
2AE
330
1F
100
AcDbEntity
  8
0
 62
     7
100
AcDbSpline
210
0.0
220
0.0
230
1.0
 70
     8
 71
     3
 72
     8
 73
     4
 74
     0
 42
0.000000001
 43
0.0000001
 40
0.0
 40
0.0
 40
0.0
 40
0.0
 40
1.0
 40
1.0
 40
1.0
 40
1.0
 10
270.0
 20
215.625
 30
0.0
 10
268.799633
 20
217.07136
 30
0.0
 10
265.20522
 20
217.077202
 30
0.0
 10
264.008085
 20
215.63475
 30
0.0
  0
SPLINE
  5
2AF
330
1F
100
AcDbEntity
  8
0
 62
     7
100
AcDbSpline
210
0.0
220
0.0
230
1.0
 70
     8
 71
     3
 72
     8
 73
     4
 74
     0
 42
0.000000001
 43
0.0000001
 40
0.0
 40
0.0
 40
0.0
 40
0.0
 40
1.0
 40
1.0
 40
1.0
 40
1.0
 10
264.008085
 20
215.63475
 30
0.0
 10
262.525733
 20
213.848625
 30
0.0
 10
263.734388
 20
211.13808
 30
0.0
 10
267.032265
 20
208.85265
 30
0.0
  0
SPLINE
  5
2B0
330
1F
100
AcDbEntity
  8
0
 62
     7
100
AcDbSpline
210
0.0
220
0.0
230
1.0
 70
     8
 71
     3
 72
     8
 73
     4
 74
     0
 42
0.000000001
 43
0.0000001
 40
0.0
 40
0.0
 40
0.0
 40
0.0
 40
1.0
 40
1.0
 40
1.0
 40
1.0
 10
267.032265
 20
208.85265
 30
0.0
 10
274.019985
 20
204.010155
 30
0.0
 10
275.518305
 20
199.652925
 30
0.0
 10
271.55769
 20
195.692318
 30
0.0
  0
SPLINE
  5
2B1
330
1F
100
AcDbEntity
  8
0
 62
     7
100
AcDbSpline
210
0.0
220
0.0
230
1.0
 70
     8
 71
     3
 72
     8
 73
     4
 74
     0
 42
0.000000001
 43
0.0000001
 40
0.0
 40
0.0
 40
0.0
 40
0.0
 40
1.0
 40
1.0
 40
1.0
 40
1.0
 10
271.55769
 20
195.692318
 30
0.0
 10
269.174745
 20
193.309372
 30
0.0
 10
266.321565
 20
192.88863
 30
0.0
 10
263.431035
 20
194.49393
 30
0.0
  0
LWPOLYLINE
  5
2B2
330
1F
100
AcDbEntity
  8
0
 62
     7
100
AcDbPolyline
 90
        2
 70
     1
 43
0.0
 10
221.46159
 20
196.778355
 10
221.46159
 20
196.778355
  0
SPLINE
  5
2B3
330
1F
100
AcDbEntity
  8
0
 62
     7
100
AcDbSpline
210
0.0
220
0.0
230
1.0
 70
     8
 71
     3
 72
     8
 73
     4
 74
     0
 42
0.000000001
 43
0.0000001
 40
0.0
 40
0.0
 40
0.0
 40
0.0
 40
1.0
 40
1.0
 40
1.0
 40
1.0
 10
296.831355
 20
194.669122
 30
0.0
 10
295.707352
 20
195.279097
 30
0.0
 10
294.441727
 20
196.424647
 30
0.0
 10
294.018855
 20
197.214787
 30
0.0
  0
SPLINE
  5
2B4
330
1F
100
AcDbEntity
  8
0
 62
     7
100
AcDbSpline
210
0.0
220
0.0
230
1.0
 70
     8
 71
     3
 72
     8
 73
     4
 74
     0
 42
0.000000001
 43
0.0000001
 40
0.0
 40
0.0
 40
0.0
 40
0.0
 40
1.0
 40
1.0
 40
1.0
 40
1.0
 10
294.018855
 20
197.214787
 30
0.0
 10
293.595982
 20
198.004905
 30
0.0
 10
293.25
 20
203.229825
 30
0.0
 10
293.25
 20
208.825695
 30
0.0
  0
SPLINE
  5
2B5
330
1F
100
AcDbEntity
  8
0
 62
     7
100
AcDbSpline
210
0.0
220
0.0
230
1.0
 70
     8
 71
     3
 72
     8
 73
     4
 74
     0
 42
0.000000001
 43
0.0000001
 40
0.0
 40
0.0
 40
0.0
 40
0.0
 40
1.0
 40
1.0
 40
1.0
 40
1.0
 10
293.25
 20
208.825695
 30
0.0
 10
293.25
 20
217.369523
 30
0.0
 10
293.430285
 20
219.0
 30
0.0
 10
294.375
 20
219.0
 30
0.0
  0
SPLINE
  5
2B6
330
1F
100
AcDbEntity
  8
0
 62
     7
100
AcDbSpline
210
0.0
220
0.0
230
1.0
 70
     8
 71
     3
 72
     8
 73
     4
 74
     0
 42
0.000000001
 43
0.0000001
 40
0.0
 40
0.0
 40
0.0
 40
0.0
 40
1.0
 40
1.0
 40
1.0
 40
1.0
 10
294.375
 20
219.0
 30
0.0
 10
295.319145
 20
219.0
 30
0.0
 10
295.5
 20
217.38105
 30
0.0
 10
295.5
 20
208.929435
 30
0.0
  0
LWPOLYLINE
  5
2B7
330
1F
100
AcDbEntity
  8
0
 62
     7
100
AcDbPolyline
 90
        2
 70
     1
 43
0.0
 10
263.431035
 20
194.49393
 10
263.431035
 20
194.49393
  0
SPLINE
  5
2B8
330
1F
100
AcDbEntity
  8
0
 62
     7
100
AcDbSpline
210
0.0
220
0.0
230
1.0
 70
     8
 71
     3
 72
     8
 73
     4
 74
     0
 42
0.000000001
 43
0.0000001
 40
0.0
 40
0.0
 40
0.0
 40
0.0
 40
1.0
 40
1.0
 40
1.0
 40
1.0
 10
297.550665
 20
197.245815
 30
0.0
 10
300.01266
 20
195.30921
 30
0.0
 10
303.435052
 20
195.673515
 30
0.0
 10
305.4375
 20
198.08535
 30
0.0
  0
SPLINE
  5
2B9
330
1F
100
AcDbEntity
  8
0
 62
     7
100
AcDbSpline
210
0.0
220
0.0
230
1.0
 70
     8
 71
     3
 72
     8
 73
     4
 74
     0
 42
0.000000001
 43
0.0000001
 40
0.0
 40
0.0
 40
0.0
 40
0.0
 40
1.0
 40
1.0
 40
1.0
 40
1.0
 10
305.4375
 20
198.08535
 30
0.0
 10
306.537847
 20
199.410652
 30
0.0
 10
306.75
 20
201.228727
 30
0.0
 10
306.75
 20
209.333085
 30
0.0
  0
SPLINE
  5
2BA
330
1F
100
AcDbEntity
  8
0
 62
     7
100
AcDbSpline
210
0.0
220
0.0
230
1.0
 70
     8
 71
     3
 72
     8
 73
     4
 74
     0
 42
0.000000001
 43
0.0000001
 40
0.0
 40
0.0
 40
0.0
 40
0.0
 40
1.0
 40
1.0
 40
1.0
 40
1.0
 10
306.75
 20
209.333085
 30
0.0
 10
306.75
 20
217.4259
 30
0.0
 10
306.933188
 20
219.0
 30
0.0
 10
307.875
 20
219.0
 30
0.0
  0
SPLINE
  5
2BB
330
1F
100
AcDbEntity
  8
0
 62
     7
100
AcDbSpline
210
0.0
220
0.0
230
1.0
 70
     8
 71
     3
 72
     8
 73
     4
 74
     0
 42
0.000000001
 43
0.0000001
 40
0.0
 40
0.0
 40
0.0
 40
0.0
 40
1.0
 40
1.0
 40
1.0
 40
1.0
 10
307.875
 20
219.0
 30
0.0
 10
308.817097
 20
219.0
 30
0.0
 10
309.0
 20
217.42059
 30
0.0
 10
309.0
 20
209.285287
 30
0.0
  0
SPLINE
  5
2BC
330
1F
100
AcDbEntity
  8
0
 62
     7
100
AcDbSpline
210
0.0
220
0.0
230
1.0
 70
     8
 71
     3
 72
     8
 73
     4
 74
     0
 42
0.000000001
 43
0.0000001
 40
0.0
 40
0.0
 40
0.0
 40
0.0
 40
1.0
 40
1.0
 40
1.0
 40
1.0
 10
309.0
 20
209.285287
 30
0.0
 10
309.0
 20
203.350793
 30
0.0
 10
308.65134
 20
198.805358
 30
0.0
 10
308.103983
 20
197.604045
 30
0.0
  0
SPLINE
  5
2BD
330
1F
100
AcDbEntity
  8
0
 62
     7
100
AcDbSpline
210
0.0
220
0.0
230
1.0
 70
     8
 71
     3
 72
     8
 73
     4
 74
     0
 42
0.000000001
 43
0.0000001
 40
0.0
 40
0.0
 40
0.0
 40
0.0
 40
1.0
 40
1.0
 40
1.0
 40
1.0
 10
308.103983
 20
197.604045
 30
0.0
 10
306.394965
 20
193.853153
 30
0.0
 10
300.94812
 20
192.435015
 30
0.0
 10
296.831355
 20
194.6691
 30
0.0
  0
LWPOLYLINE
  5
2BE
330
1F
100
AcDbEntity
  8
0
 62
     7
100
AcDbPolyline
 90
        3
 70
     0
 43
0.0
 10
295.5
 20
208.929435
 10
295.5
 20
198.85887
 10
297.550665
 20
197.245815
  0
SPLINE
  5
2BF
330
1F
100
AcDbEntity
  8
0
 62
     7
100
AcDbSpline
210
0.0
220
0.0
230
1.0
 70
     8
 71
     3
 72
     8
 73
     4
 74
     0
 42
0.000000001
 43
0.0000001
 40
0.0
 40
0.0
 40
0.0
 40
0.0
 40
1.0
 40
1.0
 40
1.0
 40
1.0
 10
532.66512
 20
196.184902
 30
0.0
 10
530.599372
 20
198.25065
 30
0.0
 10
530.21469
 20
199.014675
 30
0.0
 10
530.996925
 20
199.498125
 30
0.0
  0
SPLINE
  5
2C0
330
1F
100
AcDbEntity
  8
0
 62
     7
100
AcDbSpline
210
0.0
220
0.0
230
1.0
 70
     8
 71
     3
 72
     8
 73
     4
 74
     0
 42
0.000000001
 43
0.0000001
 40
0.0
 40
0.0
 40
0.0
 40
0.0
 40
1.0
 40
1.0
 40
1.0
 40
1.0
 10
530.996925
 20
199.498125
 30
0.0
 10
531.683137
 20
199.922227
 30
0.0
 10
532.678035
 20
199.41519
 30
0.0
 10
534.057712
 20
197.938245
 30
0.0
  0
SPLINE
  5
2C1
330
1F
100
AcDbEntity
  8
0
 62
     7
100
AcDbSpline
210
0.0
220
0.0
230
1.0
 70
     8
 71
     3
 72
     8
 73
     4
 74
     0
 42
0.000000001
 43
0.0000001
 40
0.0
 40
0.0
 40
0.0
 40
0.0
 40
1.0
 40
1.0
 40
1.0
 40
1.0
 10
534.057712
 20
197.938245
 30
0.0
 10
535.18197
 20
196.73472
 30
0.0
 10
536.735063
 20
195.750022
 30
0.0
 10
537.509025
 20
195.750022
 30
0.0
  0
SPLINE
  5
2C2
330
1F
100
AcDbEntity
  8
0
 62
     7
100
AcDbSpline
210
0.0
220
0.0
230
1.0
 70
     8
 71
     3
 72
     8
 73
     4
 74
     0
 42
0.000000001
 43
0.0000001
 40
0.0
 40
0.0
 40
0.0
 40
0.0
 40
1.0
 40
1.0
 40
1.0
 40
1.0
 10
537.509025
 20
195.750022
 30
0.0
 10
539.98539
 20
195.750022
 30
0.0
 10
542.25
 20
197.913802
 30
0.0
 10
542.25
 20
200.279895
 30
0.0
  0
SPLINE
  5
2C3
330
1F
100
AcDbEntity
  8
0
 62
     7
100
AcDbSpline
210
0.0
220
0.0
230
1.0
 70
     8
 71
     3
 72
     8
 73
     4
 74
     0
 42
0.000000001
 43
0.0000001
 40
0.0
 40
0.0
 40
0.0
 40
0.0
 40
1.0
 40
1.0
 40
1.0
 40
1.0
 10
542.25
 20
200.279895
 30
0.0
 10
542.25
 20
202.08465
 30
0.0
 10
541.397348
 20
203.14479
 30
0.0
 10
537.452272
 20
206.245103
 30
0.0
  0
SPLINE
  5
2C4
330
1F
100
AcDbEntity
  8
0
 62
     7
100
AcDbSpline
210
0.0
220
0.0
230
1.0
 70
     8
 71
     3
 72
     8
 73
     4
 74
     0
 42
0.000000001
 43
0.0000001
 40
0.0
 40
0.0
 40
0.0
 40
0.0
 40
1.0
 40
1.0
 40
1.0
 40
1.0
 10
537.452272
 20
206.245103
 30
0.0
 10
534.813525
 20
208.318815
 30
0.0
 10
532.451025
 20
210.545865
 30
0.0
 10
532.202272
 20
211.194097
 30
0.0
  0
SPLINE
  5
2C5
330
1F
100
AcDbEntity
  8
0
 62
     7
100
AcDbSpline
210
0.0
220
0.0
230
1.0
 70
     8
 71
     3
 72
     8
 73
     4
 74
     0
 42
0.000000001
 43
0.0000001
 40
0.0
 40
0.0
 40
0.0
 40
0.0
 40
1.0
 40
1.0
 40
1.0
 40
1.0
 10
532.202272
 20
211.194097
 30
0.0
 10
529.84791
 20
217.329473
 30
0.0
 10
537.552405
 20
221.693265
 30
0.0
 10
542.77068
 20
217.179998
 30
0.0
  0
SPLINE
  5
2C6
330
1F
100
AcDbEntity
  8
0
 62
     7
100
AcDbSpline
210
0.0
220
0.0
230
1.0
 70
     8
 71
     3
 72
     8
 73
     4
 74
     0
 42
0.000000001
 43
0.0000001
 40
0.0
 40
0.0
 40
0.0
 40
0.0
 40
1.0
 40
1.0
 40
1.0
 40
1.0
 10
542.77068
 20
217.179998
 30
0.0
 10
544.652528
 20
215.552392
 30
0.0
 10
544.733287
 20
215.304908
 30
0.0
 10
543.534562
 20
214.839038
 30
0.0
  0
SPLINE
  5
2C7
330
1F
100
AcDbEntity
  8
0
 62
     7
100
AcDbSpline
210
0.0
220
0.0
230
1.0
 70
     8
 71
     3
 72
     8
 73
     4
 74
     0
 42
0.000000001
 43
0.0000001
 40
0.0
 40
0.0
 40
0.0
 40
0.0
 40
1.0
 40
1.0
 40
1.0
 40
1.0
 10
543.534562
 20
214.839038
 30
0.0
 10
542.719358
 20
214.522222
 30
0.0
 10
541.667655
 20
214.794562
 30
0.0
 10
540.850508
 20
215.534063
 30
0.0
  0
SPLINE
  5
2C8
330
1F
100
AcDbEntity
  8
0
 62
     7
100
AcDbSpline
210
0.0
220
0.0
230
1.0
 70
     8
 71
     3
 72
     8
 73
     4
 74
     0
 42
0.000000001
 43
0.0000001
 40
0.0
 40
0.0
 40
0.0
 40
0.0
 40
1.0
 40
1.0
 40
1.0
 40
1.0
 10
540.850508
 20
215.534063
 30
0.0
 10
538.967932
 20
217.23777
 30
0.0
 10
535.733205
 20
217.087162
 30
0.0
 10
534.75
 20
215.250023
 30
0.0
  0
SPLINE
  5
2C9
330
1F
100
AcDbEntity
  8
0
 62
     7
100
AcDbSpline
210
0.0
220
0.0
230
1.0
 70
     8
 71
     3
 72
     8
 73
     4
 74
     0
 42
0.000000001
 43
0.0000001
 40
0.0
 40
0.0
 40
0.0
 40
0.0
 40
1.0
 40
1.0
 40
1.0
 40
1.0
 10
534.75
 20
215.250023
 30
0.0
 10
533.674522
 20
213.240473
 30
0.0
 10
534.668655
 20
211.515135
 30
0.0
 10
538.674758
 20
208.438522
 30
0.0
  0
SPLINE
  5
2CA
330
1F
100
AcDbEntity
  8
0
 62
     7
100
AcDbSpline
210
0.0
220
0.0
230
1.0
 70
     8
 71
     3
 72
     8
 73
     4
 74
     0
 42
0.000000001
 43
0.0000001
 40
0.0
 40
0.0
 40
0.0
 40
0.0
 40
1.0
 40
1.0
 40
1.0
 40
1.0
 10
538.674758
 20
208.438522
 30
0.0
 10
543.18405
 20
204.975472
 30
0.0
 10
544.464187
 20
203.22567
 30
0.0
 10
544.48332
 20
200.498865
 30
0.0
  0
SPLINE
  5
2CB
330
1F
100
AcDbEntity
  8
0
 62
     7
100
AcDbSpline
210
0.0
220
0.0
230
1.0
 70
     8
 71
     3
 72
     8
 73
     4
 74
     0
 42
0.000000001
 43
0.0000001
 40
0.0
 40
0.0
 40
0.0
 40
0.0
 40
1.0
 40
1.0
 40
1.0
 40
1.0
 10
544.48332
 20
200.498865
 30
0.0
 10
544.507095
 20
197.106187
 30
0.0
 10
543.857745
 20
195.84426
 30
0.0
 10
541.44636
 20
194.59728
 30
0.0
  0
SPLINE
  5
2CC
330
1F
100
AcDbEntity
  8
0
 62
     7
100
AcDbSpline
210
0.0
220
0.0
230
1.0
 70
     8
 71
     3
 72
     8
 73
     4
 74
     0
 42
0.000000001
 43
0.0000001
 40
0.0
 40
0.0
 40
0.0
 40
0.0
 40
1.0
 40
1.0
 40
1.0
 40
1.0
 10
541.44636
 20
194.59728
 30
0.0
 10
537.974483
 20
192.801907
 30
0.0
 10
535.62297
 20
193.227052
 30
0.0
 10
532.66512
 20
196.184902
 30
0.0
  0
LWPOLYLINE
  5
2CD
330
1F
100
AcDbEntity
  8
0
 62
     7
100
AcDbPolyline
 90
        2
 70
     1
 43
0.0
 10
296.831355
 20
194.6691
 10
296.831355
 20
194.6691
  0
LWPOLYLINE
  5
2CE
330
1F
100
AcDbEntity
  8
0
 62
     7
100
AcDbPolyline
 90
        2
 70
     1
 43
0.0
 10
532.66512
 20
196.184902
 10
532.66512
 20
196.184902
  0
SPLINE
  5
2CF
330
1F
100
AcDbEntity
  8
0
 62
     7
100
AcDbSpline
210
0.0
220
0.0
230
1.0
 70
     8
 71
     3
 72
     8
 73
     4
 74
     0
 42
0.000000001
 43
0.0000001
 40
0.0
 40
0.0
 40
0.0
 40
0.0
 40
1.0
 40
1.0
 40
1.0
 40
1.0
 10
115.5
 20
219.0
 30
0.0
 10
120.245715
 20
219.0
 30
0.0
 10
121.5
 20
218.7723
 30
0.0
 10
121.5
 20
217.91079
 30
0.0
  0
SPLINE
  5
2D0
330
1F
100
AcDbEntity
  8
0
 62
     7
100
AcDbSpline
210
0.0
220
0.0
230
1.0
 70
     8
 71
     3
 72
     8
 73
     4
 74
     0
 42
0.000000001
 43
0.0000001
 40
0.0
 40
0.0
 40
0.0
 40
0.0
 40
1.0
 40
1.0
 40
1.0
 40
1.0
 10
121.5
 20
217.91079
 30
0.0
 10
121.5
 20
217.098502
 30
0.0
 10
120.308213
 20
216.764805
 30
0.0
 10
116.8125
 20
216.59829
 30
0.0
  0
LWPOLYLINE
  5
2D1
330
1F
100
AcDbEntity
  8
0
 62
     7
100
AcDbPolyline
 90
        3
 70
     0
 43
0.0
 10
109.5
 20
206.625
 10
109.5
 20
219.0
 10
115.5
 20
219.0
  0
SPLINE
  5
2D2
330
1F
100
AcDbEntity
  8
0
 62
     7
100
AcDbSpline
210
0.0
220
0.0
230
1.0
 70
     8
 71
     3
 72
     8
 73
     4
 74
     0
 42
0.000000001
 43
0.0000001
 40
0.0
 40
0.0
 40
0.0
 40
0.0
 40
1.0
 40
1.0
 40
1.0
 40
1.0
 10
116.8125
 20
208.65171
 30
0.0
 10
120.308213
 20
208.485195
 30
0.0
 10
121.5
 20
208.151497
 30
0.0
 10
121.5
 20
207.33921
 30
0.0
  0
SPLINE
  5
2D3
330
1F
100
AcDbEntity
  8
0
 62
     7
100
AcDbSpline
210
0.0
220
0.0
230
1.0
 70
     8
 71
     3
 72
     8
 73
     4
 74
     0
 42
0.000000001
 43
0.0000001
 40
0.0
 40
0.0
 40
0.0
 40
0.0
 40
1.0
 40
1.0
 40
1.0
 40
1.0
 10
121.5
 20
207.33921
 30
0.0
 10
121.5
 20
206.49864
 30
0.0
 10
120.387142
 20
206.25
 30
0.0
 10
116.625
 20
206.25
 30
0.0
  0
LWPOLYLINE
  5
2D4
330
1F
100
AcDbEntity
  8
0
 62
     7
100
AcDbPolyline
 90
        5
 70
     0
 43
0.0
 10
116.8125
 20
216.59829
 10
112.125
 20
216.375
 10
112.125
 20
212.625
 10
112.125
 20
208.875
 10
116.8125
 20
208.65171
  0
SPLINE
  5
2D5
330
1F
100
AcDbEntity
  8
0
 62
     7
100
AcDbSpline
210
0.0
220
0.0
230
1.0
 70
     8
 71
     3
 72
     8
 73
     4
 74
     0
 42
0.000000001
 43
0.0000001
 40
0.0
 40
0.0
 40
0.0
 40
0.0
 40
1.0
 40
1.0
 40
1.0
 40
1.0
 10
111.75
 20
200.25
 30
0.0
 10
111.75
 20
195.41667
 30
0.0
 10
111.531247
 20
194.25
 30
0.0
 10
110.625
 20
194.25
 30
0.0
  0
SPLINE
  5
2D6
330
1F
100
AcDbEntity
  8
0
 62
     7
100
AcDbSpline
210
0.0
220
0.0
230
1.0
 70
     8
 71
     3
 72
     8
 73
     4
 74
     0
 42
0.000000001
 43
0.0000001
 40
0.0
 40
0.0
 40
0.0
 40
0.0
 40
1.0
 40
1.0
 40
1.0
 40
1.0
 10
110.625
 20
194.25
 30
0.0
 10
109.670453
 20
194.25
 30
0.0
 10
109.5
 20
196.125
 30
0.0
 10
109.5
 20
206.625
 30
0.0
  0
LWPOLYLINE
  5
2D7
330
1F
100
AcDbEntity
  8
0
 62
     7
100
AcDbPolyline
 90
        3
 70
     0
 43
0.0
 10
116.625
 20
206.25
 10
111.75
 20
206.25
 10
111.75
 20
200.25
  0
LWPOLYLINE
  5
2D8
330
1F
100
AcDbEntity
  8
0
 62
     7
100
AcDbPolyline
 90
        2
 70
     1
 43
0.0
 10
109.5
 20
206.625
 10
109.5
 20
206.625
  0
SPLINE
  5
2D9
330
1F
100
AcDbEntity
  8
0
 62
     7
100
AcDbSpline
210
0.0
220
0.0
230
1.0
 70
     8
 71
     3
 72
     8
 73
     4
 74
     0
 42
0.000000001
 43
0.0000001
 40
0.0
 40
0.0
 40
0.0
 40
0.0
 40
1.0
 40
1.0
 40
1.0
 40
1.0
 10
132.0
 20
219.0
 30
0.0
 10
136.745715
 20
219.0
 30
0.0
 10
138.0
 20
218.7723
 30
0.0
 10
138.0
 20
217.91079
 30
0.0
  0
SPLINE
  5
2DA
330
1F
100
AcDbEntity
  8
0
 62
     7
100
AcDbSpline
210
0.0
220
0.0
230
1.0
 70
     8
 71
     3
 72
     8
 73
     4
 74
     0
 42
0.000000001
 43
0.0000001
 40
0.0
 40
0.0
 40
0.0
 40
0.0
 40
1.0
 40
1.0
 40
1.0
 40
1.0
 10
138.0
 20
217.91079
 30
0.0
 10
138.0
 20
217.098502
 30
0.0
 10
136.808213
 20
216.764805
 30
0.0
 10
133.3125
 20
216.59829
 30
0.0
  0
LWPOLYLINE
  5
2DB
330
1F
100
AcDbEntity
  8
0
 62
     7
100
AcDbPolyline
 90
        3
 70
     0
 43
0.0
 10
126.0
 20
206.625
 10
126.0
 20
219.0
 10
132.0
 20
219.0
  0
SPLINE
  5
2DC
330
1F
100
AcDbEntity
  8
0
 62
     7
100
AcDbSpline
210
0.0
220
0.0
230
1.0
 70
     8
 71
     3
 72
     8
 73
     4
 74
     0
 42
0.000000001
 43
0.0000001
 40
0.0
 40
0.0
 40
0.0
 40
0.0
 40
1.0
 40
1.0
 40
1.0
 40
1.0
 10
133.085805
 20
208.5
 30
0.0
 10
136.953975
 20
208.5
 30
0.0
 10
138.0
 20
208.260532
 30
0.0
 10
138.0
 20
207.375
 30
0.0
  0
SPLINE
  5
2DD
330
1F
100
AcDbEntity
  8
0
 62
     7
100
AcDbSpline
210
0.0
220
0.0
230
1.0
 70
     8
 71
     3
 72
     8
 73
     4
 74
     0
 42
0.000000001
 43
0.0000001
 40
0.0
 40
0.0
 40
0.0
 40
0.0
 40
1.0
 40
1.0
 40
1.0
 40
1.0
 10
138.0
 20
207.375
 30
0.0
 10
138.0
 20
206.490383
 30
0.0
 10
136.958332
 20
206.25
 30
0.0
 10
133.125
 20
206.25
 30
0.0
  0
LWPOLYLINE
  5
2DE
330
1F
100
AcDbEntity
  8
0
 62
     7
100
AcDbPolyline
 90
        5
 70
     0
 43
0.0
 10
133.3125
 20
216.59829
 10
128.625
 20
216.375
 10
128.398305
 20
212.4375
 10
128.17161
 20
208.5
 10
133.085805
 20
208.5
  0
SPLINE
  5
2DF
330
1F
100
AcDbEntity
  8
0
 62
     7
100
AcDbSpline
210
0.0
220
0.0
230
1.0
 70
     8
 71
     3
 72
     8
 73
     4
 74
     0
 42
0.000000001
 43
0.0000001
 40
0.0
 40
0.0
 40
0.0
 40
0.0
 40
1.0
 40
1.0
 40
1.0
 40
1.0
 10
128.25
 20
200.25
 30
0.0
 10
128.25
 20
195.41667
 30
0.0
 10
128.031248
 20
194.25
 30
0.0
 10
127.125
 20
194.25
 30
0.0
  0
SPLINE
  5
2E0
330
1F
100
AcDbEntity
  8
0
 62
     7
100
AcDbSpline
210
0.0
220
0.0
230
1.0
 70
     8
 71
     3
 72
     8
 73
     4
 74
     0
 42
0.000000001
 43
0.0000001
 40
0.0
 40
0.0
 40
0.0
 40
0.0
 40
1.0
 40
1.0
 40
1.0
 40
1.0
 10
127.125
 20
194.25
 30
0.0
 10
126.170453
 20
194.25
 30
0.0
 10
126.0
 20
196.125
 30
0.0
 10
126.0
 20
206.625
 30
0.0
  0
LWPOLYLINE
  5
2E1
330
1F
100
AcDbEntity
  8
0
 62
     7
100
AcDbPolyline
 90
        3
 70
     0
 43
0.0
 10
133.125
 20
206.25
 10
128.25
 20
206.25
 10
128.25
 20
200.25
  0
SPLINE
  5
2E2
330
1F
100
AcDbEntity
  8
0
 62
     7
100
AcDbSpline
210
0.0
220
0.0
230
1.0
 70
     8
 71
     3
 72
     8
 73
     4
 74
     0
 42
0.000000001
 43
0.0000001
 40
0.0
 40
0.0
 40
0.0
 40
0.0
 40
1.0
 40
1.0
 40
1.0
 40
1.0
 10
142.5
 20
206.625
 30
0.0
 10
142.5
 20
217.125
 30
0.0
 10
142.670453
 20
219.0
 30
0.0
 10
143.625
 20
219.0
 30
0.0
  0
SPLINE
  5
2E3
330
1F
100
AcDbEntity
  8
0
 62
     7
100
AcDbSpline
210
0.0
220
0.0
230
1.0
 70
     8
 71
     3
 72
     8
 73
     4
 74
     0
 42
0.000000001
 43
0.0000001
 40
0.0
 40
0.0
 40
0.0
 40
0.0
 40
1.0
 40
1.0
 40
1.0
 40
1.0
 10
143.625
 20
219.0
 30
0.0
 10
144.579547
 20
219.0
 30
0.0
 10
144.75
 20
217.125
 30
0.0
 10
144.75
 20
206.625
 30
0.0
  0
SPLINE
  5
2E4
330
1F
100
AcDbEntity
  8
0
 62
     7
100
AcDbSpline
210
0.0
220
0.0
230
1.0
 70
     8
 71
     3
 72
     8
 73
     4
 74
     0
 42
0.000000001
 43
0.0000001
 40
0.0
 40
0.0
 40
0.0
 40
0.0
 40
1.0
 40
1.0
 40
1.0
 40
1.0
 10
144.75
 20
206.625
 30
0.0
 10
144.75
 20
196.125
 30
0.0
 10
144.579547
 20
194.25
 30
0.0
 10
143.625
 20
194.25
 30
0.0
  0
SPLINE
  5
2E5
330
1F
100
AcDbEntity
  8
0
 62
     7
100
AcDbSpline
210
0.0
220
0.0
230
1.0
 70
     8
 71
     3
 72
     8
 73
     4
 74
     0
 42
0.000000001
 43
0.0000001
 40
0.0
 40
0.0
 40
0.0
 40
0.0
 40
1.0
 40
1.0
 40
1.0
 40
1.0
 10
143.625
 20
194.25
 30
0.0
 10
142.670453
 20
194.25
 30
0.0
 10
142.5
 20
196.125
 30
0.0
 10
142.5
 20
206.625
 30
0.0
  0
LWPOLYLINE
  5
2E6
330
1F
100
AcDbEntity
  8
0
 62
     7
100
AcDbPolyline
 90
        2
 70
     1
 43
0.0
 10
126.0
 20
206.625
 10
126.0
 20
206.625
  0
LWPOLYLINE
  5
2E7
330
1F
100
AcDbEntity
  8
0
 62
     7
100
AcDbPolyline
 90
        2
 70
     1
 43
0.0
 10
142.5
 20
206.625
 10
142.5
 20
206.625
  0
SPLINE
  5
2E8
330
1F
100
AcDbEntity
  8
0
 62
     7
100
AcDbSpline
210
0.0
220
0.0
230
1.0
 70
     8
 71
     3
 72
     8
 73
     4
 74
     0
 42
0.000000001
 43
0.0000001
 40
0.0
 40
0.0
 40
0.0
 40
0.0
 40
1.0
 40
1.0
 40
1.0
 40
1.0
 10
184.875
 20
219.0
 30
0.0
 10
190.61697
 20
219.0
 30
0.0
 10
192.0
 20
218.78775
 30
0.0
 10
192.0
 20
217.906545
 30
0.0
  0
SPLINE
  5
2E9
330
1F
100
AcDbEntity
  8
0
 62
     7
100
AcDbSpline
210
0.0
220
0.0
230
1.0
 70
     8
 71
     3
 72
     8
 73
     4
 74
     0
 42
0.000000001
 43
0.0000001
 40
0.0
 40
0.0
 40
0.0
 40
0.0
 40
1.0
 40
1.0
 40
1.0
 40
1.0
 10
192.0
 20
217.906545
 30
0.0
 10
192.0
 20
217.061512
 30
0.0
 10
190.679468
 20
216.763328
 30
0.0
 10
186.1875
 20
216.594045
 30
0.0
  0
LWPOLYLINE
  5
2EA
330
1F
100
AcDbEntity
  8
0
 62
     7
100
AcDbPolyline
 90
        3
 70
     0
 43
0.0
 10
177.75
 20
206.625
 10
177.75
 20
219.0
 10
184.875
 20
219.0
  0
SPLINE
  5
2EB
330
1F
100
AcDbEntity
  8
0
 62
     7
100
AcDbSpline
210
0.0
220
0.0
230
1.0
 70
     8
 71
     3
 72
     8
 73
     4
 74
     0
 42
0.000000001
 43
0.0000001
 40
0.0
 40
0.0
 40
0.0
 40
0.0
 40
1.0
 40
1.0
 40
1.0
 40
1.0
 10
185.960805
 20
208.5
 30
0.0
 10
190.82898
 20
208.5
 30
0.0
 10
192.0
 20
208.281855
 30
0.0
 10
192.0
 20
207.375
 30
0.0
  0
SPLINE
  5
2EC
330
1F
100
AcDbEntity
  8
0
 62
     7
100
AcDbSpline
210
0.0
220
0.0
230
1.0
 70
     8
 71
     3
 72
     8
 73
     4
 74
     0
 42
0.000000001
 43
0.0000001
 40
0.0
 40
0.0
 40
0.0
 40
0.0
 40
1.0
 40
1.0
 40
1.0
 40
1.0
 10
192.0
 20
207.375
 30
0.0
 10
192.0
 20
206.468752
 30
0.0
 10
190.83333
 20
206.25
 30
0.0
 10
186.0
 20
206.25
 30
0.0
  0
LWPOLYLINE
  5
2ED
330
1F
100
AcDbEntity
  8
0
 62
     7
100
AcDbPolyline
 90
        5
 70
     0
 43
0.0
 10
186.1875
 20
216.594045
 10
180.375
 20
216.375
 10
180.148305
 20
212.4375
 10
179.92161
 20
208.5
 10
185.960805
 20
208.5
  0
SPLINE
  5
2EE
330
1F
100
AcDbEntity
  8
0
 62
     7
100
AcDbSpline
210
0.0
220
0.0
230
1.0
 70
     8
 71
     3
 72
     8
 73
     4
 74
     0
 42
0.000000001
 43
0.0000001
 40
0.0
 40
0.0
 40
0.0
 40
0.0
 40
1.0
 40
1.0
 40
1.0
 40
1.0
 10
186.0
 20
196.5
 30
0.0
 10
190.83333
 20
196.5
 30
0.0
 10
192.0
 20
196.281248
 30
0.0
 10
192.0
 20
195.375
 30
0.0
  0
SPLINE
  5
2EF
330
1F
100
AcDbEntity
  8
0
 62
     7
100
AcDbSpline
210
0.0
220
0.0
230
1.0
 70
     8
 71
     3
 72
     8
 73
     4
 74
     0
 42
0.000000001
 43
0.0000001
 40
0.0
 40
0.0
 40
0.0
 40
0.0
 40
1.0
 40
1.0
 40
1.0
 40
1.0
 10
192.0
 20
195.375
 30
0.0
 10
192.0
 20
194.453948
 30
0.0
 10
190.708335
 20
194.25
 30
0.0
 10
184.875
 20
194.25
 30
0.0
  0
LWPOLYLINE
  5
2F0
330
1F
100
AcDbEntity
  8
0
 62
     7
100
AcDbPolyline
 90
        5
 70
     0
 43
0.0
 10
186.0
 20
206.25
 10
180.0
 20
206.25
 10
180.0
 20
201.375
 10
180.0
 20
196.5
 10
186.0
 20
196.5
  0
LWPOLYLINE
  5
2F1
330
1F
100
AcDbEntity
  8
0
 62
     7
100
AcDbPolyline
 90
        3
 70
     0
 43
0.0
 10
184.875
 20
194.25
 10
177.75
 20
194.25
 10
177.75
 20
206.625
  0
SPLINE
  5
2F2
330
1F
100
AcDbEntity
  8
0
 62
     7
100
AcDbSpline
210
0.0
220
0.0
230
1.0
 70
     8
 71
     3
 72
     8
 73
     4
 74
     0
 42
0.000000001
 43
0.0000001
 40
0.0
 40
0.0
 40
0.0
 40
0.0
 40
1.0
 40
1.0
 40
1.0
 40
1.0
 10
241.5
 20
219.0
 30
0.0
 10
246.245715
 20
219.0
 30
0.0
 10
247.5
 20
218.7723
 30
0.0
 10
247.5
 20
217.91079
 30
0.0
  0
SPLINE
  5
2F3
330
1F
100
AcDbEntity
  8
0
 62
     7
100
AcDbSpline
210
0.0
220
0.0
230
1.0
 70
     8
 71
     3
 72
     8
 73
     4
 74
     0
 42
0.000000001
 43
0.0000001
 40
0.0
 40
0.0
 40
0.0
 40
0.0
 40
1.0
 40
1.0
 40
1.0
 40
1.0
 10
247.5
 20
217.91079
 30
0.0
 10
247.5
 20
217.098502
 30
0.0
 10
246.308213
 20
216.764805
 30
0.0
 10
242.8125
 20
216.59829
 30
0.0
  0
LWPOLYLINE
  5
2F4
330
1F
100
AcDbEntity
  8
0
 62
     7
100
AcDbPolyline
 90
        3
 70
     0
 43
0.0
 10
235.5
 20
206.625
 10
235.5
 20
219.0
 10
241.5
 20
219.0
  0
SPLINE
  5
2F5
330
1F
100
AcDbEntity
  8
0
 62
     7
100
AcDbSpline
210
0.0
220
0.0
230
1.0
 70
     8
 71
     3
 72
     8
 73
     4
 74
     0
 42
0.000000001
 43
0.0000001
 40
0.0
 40
0.0
 40
0.0
 40
0.0
 40
1.0
 40
1.0
 40
1.0
 40
1.0
 10
242.585805
 20
208.5
 30
0.0
 10
246.453975
 20
208.5
 30
0.0
 10
247.5
 20
208.260532
 30
0.0
 10
247.5
 20
207.375
 30
0.0
  0
SPLINE
  5
2F6
330
1F
100
AcDbEntity
  8
0
 62
     7
100
AcDbSpline
210
0.0
220
0.0
230
1.0
 70
     8
 71
     3
 72
     8
 73
     4
 74
     0
 42
0.000000001
 43
0.0000001
 40
0.0
 40
0.0
 40
0.0
 40
0.0
 40
1.0
 40
1.0
 40
1.0
 40
1.0
 10
247.5
 20
207.375
 30
0.0
 10
247.5
 20
206.490383
 30
0.0
 10
246.458332
 20
206.25
 30
0.0
 10
242.625
 20
206.25
 30
0.0
  0
LWPOLYLINE
  5
2F7
330
1F
100
AcDbEntity
  8
0
 62
     7
100
AcDbPolyline
 90
        5
 70
     0
 43
0.0
 10
242.8125
 20
216.59829
 10
238.125
 20
216.375
 10
237.898305
 20
212.4375
 10
237.67161
 20
208.5
 10
242.585805
 20
208.5
  0
SPLINE
  5
2F8
330
1F
100
AcDbEntity
  8
0
 62
     7
100
AcDbSpline
210
0.0
220
0.0
230
1.0
 70
     8
 71
     3
 72
     8
 73
     4
 74
     0
 42
0.000000001
 43
0.0000001
 40
0.0
 40
0.0
 40
0.0
 40
0.0
 40
1.0
 40
1.0
 40
1.0
 40
1.0
 10
237.75
 20
200.25
 30
0.0
 10
237.75
 20
195.41667
 30
0.0
 10
237.531248
 20
194.25
 30
0.0
 10
236.625
 20
194.25
 30
0.0
  0
SPLINE
  5
2F9
330
1F
100
AcDbEntity
  8
0
 62
     7
100
AcDbSpline
210
0.0
220
0.0
230
1.0
 70
     8
 71
     3
 72
     8
 73
     4
 74
     0
 42
0.000000001
 43
0.0000001
 40
0.0
 40
0.0
 40
0.0
 40
0.0
 40
1.0
 40
1.0
 40
1.0
 40
1.0
 10
236.625
 20
194.25
 30
0.0
 10
235.670452
 20
194.25
 30
0.0
 10
235.5
 20
196.125
 30
0.0
 10
235.5
 20
206.625
 30
0.0
  0
LWPOLYLINE
  5
2FA
330
1F
100
AcDbEntity
  8
0
 62
     7
100
AcDbPolyline
 90
        3
 70
     0
 43
0.0
 10
242.625
 20
206.25
 10
237.75
 20
206.25
 10
237.75
 20
200.25
  0
LWPOLYLINE
  5
2FB
330
1F
100
AcDbEntity
  8
0
 62
     7
100
AcDbPolyline
 90
        2
 70
     1
 43
0.0
 10
235.5
 20
206.625
 10
235.5
 20
206.625
  0
SPLINE
  5
2FC
330
1F
100
AcDbEntity
  8
0
 62
     7
100
AcDbSpline
210
0.0
220
0.0
230
1.0
 70
     8
 71
     3
 72
     8
 73
     4
 74
     0
 42
0.000000001
 43
0.0000001
 40
0.0
 40
0.0
 40
0.0
 40
0.0
 40
1.0
 40
1.0
 40
1.0
 40
1.0
 10
278.8125
 20
216.607777
 30
0.0
 10
276.972705
 20
216.760042
 30
0.0
 10
276.0
 20
217.213973
 30
0.0
 10
276.0
 20
217.920277
 30
0.0
  0
SPLINE
  5
2FD
330
1F
100
AcDbEntity
  8
0
 62
     7
100
AcDbSpline
210
0.0
220
0.0
230
1.0
 70
     8
 71
     3
 72
     8
 73
     4
 74
     0
 42
0.000000001
 43
0.0000001
 40
0.0
 40
0.0
 40
0.0
 40
0.0
 40
1.0
 40
1.0
 40
1.0
 40
1.0
 10
276.0
 20
217.920277
 30
0.0
 10
276.0
 20
218.779927
 30
0.0
 10
277.375792
 20
219.0
 30
0.0
 10
282.75
 20
219.0
 30
0.0
  0
SPLINE
  5
2FE
330
1F
100
AcDbEntity
  8
0
 62
     7
100
AcDbSpline
210
0.0
220
0.0
230
1.0
 70
     8
 71
     3
 72
     8
 73
     4
 74
     0
 42
0.000000001
 43
0.0000001
 40
0.0
 40
0.0
 40
0.0
 40
0.0
 40
1.0
 40
1.0
 40
1.0
 40
1.0
 10
282.75
 20
219.0
 30
0.0
 10
288.249998
 20
219.0
 30
0.0
 10
289.5
 20
218.791665
 30
0.0
 10
289.5
 20
217.875
 30
0.0
  0
SPLINE
  5
2FF
330
1F
100
AcDbEntity
  8
0
 62
     7
100
AcDbSpline
210
0.0
220
0.0
230
1.0
 70
     8
 71
     3
 72
     8
 73
     4
 74
     0
 42
0.000000001
 43
0.0000001
 40
0.0
 40
0.0
 40
0.0
 40
0.0
 40
1.0
 40
1.0
 40
1.0
 40
1.0
 10
289.5
 20
217.875
 30
0.0
 10
289.5
 20
217.089285
 30
0.0
 10
288.70833
 20
216.75
 30
0.0
 10
286.875
 20
216.75
 30
0.0
  0
LWPOLYLINE
  5
300
330
1F
100
AcDbEntity
  8
0
 62
     7
100
AcDbPolyline
 90
        3
 70
     0
 43
0.0
 10
281.832547
 20
205.3125
 10
281.625
 20
216.375
 10
278.8125
 20
216.607777
  0
SPLINE
  5
301
330
1F
100
AcDbEntity
  8
0
 62
     7
100
AcDbSpline
210
0.0
220
0.0
230
1.0
 70
     8
 71
     3
 72
     8
 73
     4
 74
     0
 42
0.000000001
 43
0.0000001
 40
0.0
 40
0.0
 40
0.0
 40
0.0
 40
1.0
 40
1.0
 40
1.0
 40
1.0
 10
284.25
 20
205.5
 30
0.0
 10
284.25
 20
196.090725
 30
0.0
 10
284.069205
 20
194.25
 30
0.0
 10
283.145047
 20
194.25
 30
0.0
  0
SPLINE
  5
302
330
1F
100
AcDbEntity
  8
0
 62
     7
100
AcDbSpline
210
0.0
220
0.0
230
1.0
 70
     8
 71
     3
 72
     8
 73
     4
 74
     0
 42
0.000000001
 43
0.0000001
 40
0.0
 40
0.0
 40
0.0
 40
0.0
 40
1.0
 40
1.0
 40
1.0
 40
1.0
 10
283.145047
 20
194.25
 30
0.0
 10
282.231105
 20
194.25
 30
0.0
 10
282.004222
 20
196.162297
 30
0.0
 10
281.832547
 20
205.3125
 30
0.0
  0
LWPOLYLINE
  5
303
330
1F
100
AcDbEntity
  8
0
 62
     7
100
AcDbPolyline
 90
        3
 70
     0
 43
0.0
 10
286.875
 20
216.75
 10
284.25
 20
216.75
 10
284.25
 20
205.5
  0
LWPOLYLINE
  5
304
330
1F
100
AcDbEntity
  8
0
 62
     7
100
AcDbPolyline
 90
        2
 70
     1
 43
0.0
 10
281.832547
 20
205.3125
 10
281.832547
 20
205.3125
  0
SPLINE
  5
305
330
1F
100
AcDbEntity
  8
0
 62
     7
100
AcDbSpline
210
0.0
220
0.0
230
1.0
 70
     8
 71
     3
 72
     8
 73
     4
 74
     0
 42
0.000000001
 43
0.0000001
 40
0.0
 40
0.0
 40
0.0
 40
0.0
 40
1.0
 40
1.0
 40
1.0
 40
1.0
 10
321.83988
 20
218.75271
 30
0.0
 10
331.686847
 20
217.993365
 30
0.0
 10
335.365635
 20
214.848833
 30
0.0
 10
335.818185
 20
206.804422
 30
0.0
  0
SPLINE
  5
306
330
1F
100
AcDbEntity
  8
0
 62
     7
100
AcDbSpline
210
0.0
220
0.0
230
1.0
 70
     8
 71
     3
 72
     8
 73
     4
 74
     0
 42
0.000000001
 43
0.0000001
 40
0.0
 40
0.0
 40
0.0
 40
0.0
 40
1.0
 40
1.0
 40
1.0
 40
1.0
 10
335.818185
 20
206.804422
 30
0.0
 10
336.027915
 20
203.07642
 30
0.0
 10
335.769585
 20
201.628013
 30
0.0
 10
334.547573
 20
199.680645
 30
0.0
  0
SPLINE
  5
307
330
1F
100
AcDbEntity
  8
0
 62
     7
100
AcDbSpline
210
0.0
220
0.0
230
1.0
 70
     8
 71
     3
 72
     8
 73
     4
 74
     0
 42
0.000000001
 43
0.0000001
 40
0.0
 40
0.0
 40
0.0
 40
0.0
 40
1.0
 40
1.0
 40
1.0
 40
1.0
 10
334.547573
 20
199.680645
 30
0.0
 10
331.94109
 20
195.526965
 30
0.0
 10
328.988348
 20
194.256
 30
0.0
 10
321.9375
 20
194.252805
 30
0.0
  0
LWPOLYLINE
  5
308
330
1F
100
AcDbEntity
  8
0
 62
     7
100
AcDbPolyline
 90
        3
 70
     0
 43
0.0
 10
315.75
 20
206.736165
 10
315.75
 20
219.222323
 10
321.83988
 20
218.75271
  0
SPLINE
  5
309
330
1F
100
AcDbEntity
  8
0
 62
     7
100
AcDbSpline
210
0.0
220
0.0
230
1.0
 70
     8
 71
     3
 72
     8
 73
     4
 74
     0
 42
0.000000001
 43
0.0000001
 40
0.0
 40
0.0
 40
0.0
 40
0.0
 40
1.0
 40
1.0
 40
1.0
 40
1.0
 10
330.948195
 20
199.352048
 30
0.0
 10
333.141165
 20
201.54501
 30
0.0
 10
333.375
 20
202.209668
 30
0.0
 10
333.375
 20
206.25
 30
0.0
  0
SPLINE
  5
30A
330
1F
100
AcDbEntity
  8
0
 62
     7
100
AcDbSpline
210
0.0
220
0.0
230
1.0
 70
     8
 71
     3
 72
     8
 73
     4
 74
     0
 42
0.000000001
 43
0.0000001
 40
0.0
 40
0.0
 40
0.0
 40
0.0
 40
1.0
 40
1.0
 40
1.0
 40
1.0
 10
333.375
 20
206.25
 30
0.0
 10
333.375
 20
210.218197
 30
0.0
 10
333.121897
 20
210.974123
 30
0.0
 10
331.125
 20
212.970023
 30
0.0
  0
SPLINE
  5
30B
330
1F
100
AcDbEntity
  8
0
 62
     7
100
AcDbSpline
210
0.0
220
0.0
230
1.0
 70
     8
 71
     3
 72
     8
 73
     4
 74
     0
 42
0.000000001
 43
0.0000001
 40
0.0
 40
0.0
 40
0.0
 40
0.0
 40
1.0
 40
1.0
 40
1.0
 40
1.0
 10
331.125
 20
212.970023
 30
0.0
 10
329.546685
 20
214.547535
 30
0.0
 10
327.668993
 20
215.447423
 30
0.0
 10
324.835132
 20
215.984445
 30
0.0
  0
SPLINE
  5
30C
330
1F
100
AcDbEntity
  8
0
 62
     7
100
AcDbSpline
210
0.0
220
0.0
230
1.0
 70
     8
 71
     3
 72
     8
 73
     4
 74
     0
 42
0.000000001
 43
0.0000001
 40
0.0
 40
0.0
 40
0.0
 40
0.0
 40
1.0
 40
1.0
 40
1.0
 40
1.0
 10
324.835132
 20
215.984445
 30
0.0
 10
317.463615
 20
217.38135
 30
0.0
 10
318.0
 20
218.12247
 30
0.0
 10
318.0
 20
206.540363
 30
0.0
  0
LWPOLYLINE
  5
30D
330
1F
100
AcDbEntity
  8
0
 62
     7
100
AcDbPolyline
 90
        3
 70
     0
 43
0.0
 10
321.9375
 20
194.252805
 10
315.75
 20
194.25
 10
315.75
 20
206.736165
  0
SPLINE
  5
30E
330
1F
100
AcDbEntity
  8
0
 62
     7
100
AcDbSpline
210
0.0
220
0.0
230
1.0
 70
     8
 71
     3
 72
     8
 73
     4
 74
     0
 42
0.000000001
 43
0.0000001
 40
0.0
 40
0.0
 40
0.0
 40
0.0
 40
1.0
 40
1.0
 40
1.0
 40
1.0
 10
323.260695
 20
196.627988
 30
0.0
 10
328.001377
 20
196.895858
 30
0.0
 10
328.761285
 20
197.16513
 30
0.0
 10
330.948195
 20
199.352048
 30
0.0
  0
LWPOLYLINE
  5
30F
330
1F
100
AcDbEntity
  8
0
 62
     7
100
AcDbPolyline
 90
        3
 70
     0
 43
0.0
 10
318.0
 20
206.540363
 10
318.0
 20
196.330733
 10
323.260695
 20
196.627988
  0
LWPOLYLINE
  5
310
330
1F
100
AcDbEntity
  8
0
 62
     7
100
AcDbPolyline
 90
        2
 70
     1
 43
0.0
 10
330.948195
 20
199.352048
 10
330.948195
 20
199.352048
  0
SPLINE
  5
311
330
1F
100
AcDbEntity
  8
0
 62
     7
100
AcDbSpline
210
0.0
220
0.0
230
1.0
 70
     8
 71
     3
 72
     8
 73
     4
 74
     0
 42
0.000000001
 43
0.0000001
 40
0.0
 40
0.0
 40
0.0
 40
0.0
 40
1.0
 40
1.0
 40
1.0
 40
1.0
 10
348.0
 20
219.0
 30
0.0
 10
353.499998
 20
219.0
 30
0.0
 10
354.75
 20
218.791665
 30
0.0
 10
354.75
 20
217.875
 30
0.0
  0
SPLINE
  5
312
330
1F
100
AcDbEntity
  8
0
 62
     7
100
AcDbSpline
210
0.0
220
0.0
230
1.0
 70
     8
 71
     3
 72
     8
 73
     4
 74
     0
 42
0.000000001
 43
0.0000001
 40
0.0
 40
0.0
 40
0.0
 40
0.0
 40
1.0
 40
1.0
 40
1.0
 40
1.0
 10
354.75
 20
217.875
 30
0.0
 10
354.75
 20
216.975
 30
0.0
 10
353.625
 20
216.75
 30
0.0
 10
349.125
 20
216.75
 30
0.0
  0
LWPOLYLINE
  5
313
330
1F
100
AcDbEntity
  8
0
 62
     7
100
AcDbPolyline
 90
        3
 70
     0
 43
0.0
 10
341.25
 20
206.625
 10
341.25
 20
219.0
 10
348.0
 20
219.0
  0
SPLINE
  5
314
330
1F
100
AcDbEntity
  8
0
 62
     7
100
AcDbSpline
210
0.0
220
0.0
230
1.0
 70
     8
 71
     3
 72
     8
 73
     4
 74
     0
 42
0.000000001
 43
0.0000001
 40
0.0
 40
0.0
 40
0.0
 40
0.0
 40
1.0
 40
1.0
 40
1.0
 40
1.0
 10
349.125
 20
208.5
 30
0.0
 10
353.625
 20
208.5
 30
0.0
 10
354.75
 20
208.275
 30
0.0
 10
354.75
 20
207.375
 30
0.0
  0
SPLINE
  5
315
330
1F
100
AcDbEntity
  8
0
 62
     7
100
AcDbSpline
210
0.0
220
0.0
230
1.0
 70
     8
 71
     3
 72
     8
 73
     4
 74
     0
 42
0.000000001
 43
0.0000001
 40
0.0
 40
0.0
 40
0.0
 40
0.0
 40
1.0
 40
1.0
 40
1.0
 40
1.0
 10
354.75
 20
207.375
 30
0.0
 10
354.75
 20
206.475
 30
0.0
 10
353.625
 20
206.25
 30
0.0
 10
349.125
 20
206.25
 30
0.0
  0
LWPOLYLINE
  5
316
330
1F
100
AcDbEntity
  8
0
 62
     7
100
AcDbPolyline
 90
        5
 70
     0
 43
0.0
 10
349.125
 20
216.75
 10
343.5
 20
216.75
 10
343.5
 20
212.625
 10
343.5
 20
208.5
 10
349.125
 20
208.5
  0
SPLINE
  5
317
330
1F
100
AcDbEntity
  8
0
 62
     7
100
AcDbSpline
210
0.0
220
0.0
230
1.0
 70
     8
 71
     3
 72
     8
 73
     4
 74
     0
 42
0.000000001
 43
0.0000001
 40
0.0
 40
0.0
 40
0.0
 40
0.0
 40
1.0
 40
1.0
 40
1.0
 40
1.0
 10
349.125
 20
196.5
 30
0.0
 10
353.625
 20
196.5
 30
0.0
 10
354.75
 20
196.275
 30
0.0
 10
354.75
 20
195.375
 30
0.0
  0
SPLINE
  5
318
330
1F
100
AcDbEntity
  8
0
 62
     7
100
AcDbSpline
210
0.0
220
0.0
230
1.0
 70
     8
 71
     3
 72
     8
 73
     4
 74
     0
 42
0.000000001
 43
0.0000001
 40
0.0
 40
0.0
 40
0.0
 40
0.0
 40
1.0
 40
1.0
 40
1.0
 40
1.0
 10
354.75
 20
195.375
 30
0.0
 10
354.75
 20
194.458335
 30
0.0
 10
353.499998
 20
194.25
 30
0.0
 10
348.0
 20
194.25
 30
0.0
  0
LWPOLYLINE
  5
319
330
1F
100
AcDbEntity
  8
0
 62
     7
100
AcDbPolyline
 90
        5
 70
     0
 43
0.0
 10
349.125
 20
206.25
 10
343.5
 20
206.25
 10
343.5
 20
201.375
 10
343.5
 20
196.5
 10
349.125
 20
196.5
  0
SPLINE
  5
31A
330
1F
100
AcDbEntity
  8
0
 62
     7
100
AcDbSpline
210
0.0
220
0.0
230
1.0
 70
     8
 71
     3
 72
     8
 73
     4
 74
     0
 42
0.000000001
 43
0.0000001
 40
0.0
 40
0.0
 40
0.0
 40
0.0
 40
1.0
 40
1.0
 40
1.0
 40
1.0
 10
359.25
 20
206.625
 30
0.0
 10
359.25
 20
213.43125
 30
0.0
 10
359.389133
 20
219.0
 30
0.0
 10
359.55918
 20
219.0
 30
0.0
  0
SPLINE
  5
31B
330
1F
100
AcDbEntity
  8
0
 62
     7
100
AcDbSpline
210
0.0
220
0.0
230
1.0
 70
     8
 71
     3
 72
     8
 73
     4
 74
     0
 42
0.000000001
 43
0.0000001
 40
0.0
 40
0.0
 40
0.0
 40
0.0
 40
1.0
 40
1.0
 40
1.0
 40
1.0
 10
359.55918
 20
219.0
 30
0.0
 10
359.729235
 20
219.0
 30
0.0
 10
363.52611
 20
214.755405
 30
0.0
 10
367.99668
 20
209.567565
 30
0.0
  0
LWPOLYLINE
  5
31C
330
1F
100
AcDbEntity
  8
0
 62
     7
100
AcDbPolyline
 90
        3
 70
     0
 43
0.0
 10
348.0
 20
194.25
 10
341.25
 20
194.25
 10
341.25
 20
206.625
  0
SPLINE
  5
31D
330
1F
100
AcDbEntity
  8
0
 62
     7
100
AcDbSpline
210
0.0
220
0.0
230
1.0
 70
     8
 71
     3
 72
     8
 73
     4
 74
     0
 42
0.000000001
 43
0.0000001
 40
0.0
 40
0.0
 40
0.0
 40
0.0
 40
1.0
 40
1.0
 40
1.0
 40
1.0
 10
376.33491
 20
209.567565
 30
0.0
 10
376.506352
 20
217.271565
 30
0.0
 10
376.746855
 20
219.0
 30
0.0
 10
377.64741
 20
219.0
 30
0.0
  0
SPLINE
  5
31E
330
1F
100
AcDbEntity
  8
0
 62
     7
100
AcDbSpline
210
0.0
220
0.0
230
1.0
 70
     8
 71
     3
 72
     8
 73
     4
 74
     0
 42
0.000000001
 43
0.0000001
 40
0.0
 40
0.0
 40
0.0
 40
0.0
 40
1.0
 40
1.0
 40
1.0
 40
1.0
 10
377.64741
 20
219.0
 30
0.0
 10
378.572985
 20
219.0
 30
0.0
 10
378.75
 20
217.013227
 30
0.0
 10
378.75
 20
206.625
 30
0.0
  0
SPLINE
  5
31F
330
1F
100
AcDbEntity
  8
0
 62
     7
100
AcDbSpline
210
0.0
220
0.0
230
1.0
 70
     8
 71
     3
 72
     8
 73
     4
 74
     0
 42
0.000000001
 43
0.0000001
 40
0.0
 40
0.0
 40
0.0
 40
0.0
 40
1.0
 40
1.0
 40
1.0
 40
1.0
 10
378.75
 20
206.625
 30
0.0
 10
378.75
 20
199.81875
 30
0.0
 10
378.628253
 20
194.25
 30
0.0
 10
378.47946
 20
194.25
 30
0.0
  0
SPLINE
  5
320
330
1F
100
AcDbEntity
  8
0
 62
     7
100
AcDbSpline
210
0.0
220
0.0
230
1.0
 70
     8
 71
     3
 72
     8
 73
     4
 74
     0
 42
0.000000001
 43
0.0000001
 40
0.0
 40
0.0
 40
0.0
 40
0.0
 40
1.0
 40
1.0
 40
1.0
 40
1.0
 10
378.47946
 20
194.25
 30
0.0
 10
378.33066
 20
194.25
 30
0.0
 10
374.702535
 20
198.298395
 30
0.0
 10
370.41696
 20
203.24643
 30
0.0
  0
SPLINE
  5
321
330
1F
100
AcDbEntity
  8
0
 62
     7
100
AcDbSpline
210
0.0
220
0.0
230
1.0
 70
     8
 71
     3
 72
     8
 73
     4
 74
     0
 42
0.000000001
 43
0.0000001
 40
0.0
 40
0.0
 40
0.0
 40
0.0
 40
1.0
 40
1.0
 40
1.0
 40
1.0
 10
370.41696
 20
203.24643
 30
0.0
 10
366.131377
 20
208.194465
 30
0.0
 10
362.371875
 20
212.244465
 30
0.0
 10
362.0625
 20
212.24643
 30
0.0
  0
SPLINE
  5
322
330
1F
100
AcDbEntity
  8
0
 62
     7
100
AcDbSpline
210
0.0
220
0.0
230
1.0
 70
     8
 71
     3
 72
     8
 73
     4
 74
     0
 42
0.000000001
 43
0.0000001
 40
0.0
 40
0.0
 40
0.0
 40
0.0
 40
1.0
 40
1.0
 40
1.0
 40
1.0
 10
362.0625
 20
212.24643
 30
0.0
 10
361.753125
 20
212.248395
 30
0.0
 10
361.5
 20
208.2
 30
0.0
 10
361.5
 20
203.25
 30
0.0
  0
SPLINE
  5
323
330
1F
100
AcDbEntity
  8
0
 62
     7
100
AcDbSpline
210
0.0
220
0.0
230
1.0
 70
     8
 71
     3
 72
     8
 73
     4
 74
     0
 42
0.000000001
 43
0.0000001
 40
0.0
 40
0.0
 40
0.0
 40
0.0
 40
1.0
 40
1.0
 40
1.0
 40
1.0
 10
361.5
 20
203.25
 30
0.0
 10
361.5
 20
195.75
 30
0.0
 10
361.3125
 20
194.25
 30
0.0
 10
360.375
 20
194.25
 30
0.0
  0
SPLINE
  5
324
330
1F
100
AcDbEntity
  8
0
 62
     7
100
AcDbSpline
210
0.0
220
0.0
230
1.0
 70
     8
 71
     3
 72
     8
 73
     4
 74
     0
 42
0.000000001
 43
0.0000001
 40
0.0
 40
0.0
 40
0.0
 40
0.0
 40
1.0
 40
1.0
 40
1.0
 40
1.0
 10
360.375
 20
194.25
 30
0.0
 10
359.420453
 20
194.25
 30
0.0
 10
359.25
 20
196.125
 30
0.0
 10
359.25
 20
206.625
 30
0.0
  0
LWPOLYLINE
  5
325
330
1F
100
AcDbEntity
  8
0
 62
     7
100
AcDbPolyline
 90
        3
 70
     0
 43
0.0
 10
367.99668
 20
209.567565
 10
376.125
 20
200.13513
 10
376.33491
 20
209.567565
  0
LWPOLYLINE
  5
326
330
1F
100
AcDbEntity
  8
0
 62
     7
100
AcDbPolyline
 90
        2
 70
     1
 43
0.0
 10
359.25
 20
206.625
 10
359.25
 20
206.625
  0
SPLINE
  5
327
330
1F
100
AcDbEntity
  8
0
 62
     7
100
AcDbSpline
210
0.0
220
0.0
230
1.0
 70
     8
 71
     3
 72
     8
 73
     4
 74
     0
 42
0.000000001
 43
0.0000001
 40
0.0
 40
0.0
 40
0.0
 40
0.0
 40
1.0
 40
1.0
 40
1.0
 40
1.0
 10
385.125
 20
216.75
 30
0.0
 10
383.29167
 20
216.75
 30
0.0
 10
382.5
 20
217.089285
 30
0.0
 10
382.5
 20
217.875
 30
0.0
  0
SPLINE
  5
328
330
1F
100
AcDbEntity
  8
0
 62
     7
100
AcDbSpline
210
0.0
220
0.0
230
1.0
 70
     8
 71
     3
 72
     8
 73
     4
 74
     0
 42
0.000000001
 43
0.0000001
 40
0.0
 40
0.0
 40
0.0
 40
0.0
 40
1.0
 40
1.0
 40
1.0
 40
1.0
 10
382.5
 20
217.875
 30
0.0
 10
382.5
 20
218.786767
 30
0.0
 10
383.708332
 20
219.0
 30
0.0
 10
388.875
 20
219.0
 30
0.0
  0
SPLINE
  5
329
330
1F
100
AcDbEntity
  8
0
 62
     7
100
AcDbSpline
210
0.0
220
0.0
230
1.0
 70
     8
 71
     3
 72
     8
 73
     4
 74
     0
 42
0.000000001
 43
0.0000001
 40
0.0
 40
0.0
 40
0.0
 40
0.0
 40
1.0
 40
1.0
 40
1.0
 40
1.0
 10
388.875
 20
219.0
 30
0.0
 10
393.91671
 20
219.0
 30
0.0
 10
395.25
 20
218.774655
 30
0.0
 10
395.25
 20
217.92252
 30
0.0
  0
SPLINE
  5
32A
330
1F
100
AcDbEntity
  8
0
 62
     7
100
AcDbSpline
210
0.0
220
0.0
230
1.0
 70
     8
 71
     3
 72
     8
 73
     4
 74
     0
 42
0.000000001
 43
0.0000001
 40
0.0
 40
0.0
 40
0.0
 40
0.0
 40
1.0
 40
1.0
 40
1.0
 40
1.0
 10
395.25
 20
217.92252
 30
0.0
 10
395.25
 20
217.25511
 30
0.0
 10
394.322333
 20
216.755595
 30
0.0
 10
392.8125
 20
216.61002
 30
0.0
  0
LWPOLYLINE
  5
32B
330
1F
100
AcDbEntity
  8
0
 62
     7
100
AcDbPolyline
 90
        3
 70
     0
 43
0.0
 10
387.75
 20
205.5
 10
387.75
 20
216.75
 10
385.125
 20
216.75
  0
SPLINE
  5
32C
330
1F
100
AcDbEntity
  8
0
 62
     7
100
AcDbSpline
210
0.0
220
0.0
230
1.0
 70
     8
 71
     3
 72
     8
 73
     4
 74
     0
 42
0.000000001
 43
0.0000001
 40
0.0
 40
0.0
 40
0.0
 40
0.0
 40
1.0
 40
1.0
 40
1.0
 40
1.0
 10
390.167452
 20
205.3125
 30
0.0
 10
389.995778
 20
196.162297
 30
0.0
 10
389.768895
 20
194.25
 30
0.0
 10
388.854952
 20
194.25
 30
0.0
  0
SPLINE
  5
32D
330
1F
100
AcDbEntity
  8
0
 62
     7
100
AcDbSpline
210
0.0
220
0.0
230
1.0
 70
     8
 71
     3
 72
     8
 73
     4
 74
     0
 42
0.000000001
 43
0.0000001
 40
0.0
 40
0.0
 40
0.0
 40
0.0
 40
1.0
 40
1.0
 40
1.0
 40
1.0
 10
388.854952
 20
194.25
 30
0.0
 10
387.930795
 20
194.25
 30
0.0
 10
387.75
 20
196.090725
 30
0.0
 10
387.75
 20
205.5
 30
0.0
  0
LWPOLYLINE
  5
32E
330
1F
100
AcDbEntity
  8
0
 62
     7
100
AcDbPolyline
 90
        3
 70
     0
 43
0.0
 10
392.8125
 20
216.61002
 10
390.375
 20
216.375
 10
390.167452
 20
205.3125
  0
SPLINE
  5
32F
330
1F
100
AcDbEntity
  8
0
 62
     7
100
AcDbSpline
210
0.0
220
0.0
230
1.0
 70
     8
 71
     3
 72
     8
 73
     4
 74
     0
 42
0.000000001
 43
0.0000001
 40
0.0
 40
0.0
 40
0.0
 40
0.0
 40
1.0
 40
1.0
 40
1.0
 40
1.0
 10
408.75
 20
206.625
 30
0.0
 10
408.75
 20
217.125
 30
0.0
 10
408.920453
 20
219.0
 30
0.0
 10
409.875
 20
219.0
 30
0.0
  0
SPLINE
  5
330
330
1F
100
AcDbEntity
  8
0
 62
     7
100
AcDbSpline
210
0.0
220
0.0
230
1.0
 70
     8
 71
     3
 72
     8
 73
     4
 74
     0
 42
0.000000001
 43
0.0000001
 40
0.0
 40
0.0
 40
0.0
 40
0.0
 40
1.0
 40
1.0
 40
1.0
 40
1.0
 10
409.875
 20
219.0
 30
0.0
 10
410.825002
 20
219.0
 30
0.0
 10
411.0
 20
217.250002
 30
0.0
 10
411.0
 20
207.75
 30
0.0
  0
LWPOLYLINE
  5
331
330
1F
100
AcDbEntity
  8
0
 62
     7
100
AcDbPolyline
 90
        2
 70
     1
 43
0.0
 10
387.75
 20
205.5
 10
387.75
 20
205.5
  0
SPLINE
  5
332
330
1F
100
AcDbEntity
  8
0
 62
     7
100
AcDbSpline
210
0.0
220
0.0
230
1.0
 70
     8
 71
     3
 72
     8
 73
     4
 74
     0
 42
0.000000001
 43
0.0000001
 40
0.0
 40
0.0
 40
0.0
 40
0.0
 40
1.0
 40
1.0
 40
1.0
 40
1.0
 10
415.875
 20
196.5
 30
0.0
 10
419.708333
 20
196.5
 30
0.0
 10
420.75
 20
196.259617
 30
0.0
 10
420.75
 20
195.375
 30
0.0
  0
SPLINE
  5
333
330
1F
100
AcDbEntity
  8
0
 62
     7
100
AcDbSpline
210
0.0
220
0.0
230
1.0
 70
     8
 71
     3
 72
     8
 73
     4
 74
     0
 42
0.000000001
 43
0.0000001
 40
0.0
 40
0.0
 40
0.0
 40
0.0
 40
1.0
 40
1.0
 40
1.0
 40
1.0
 10
420.75
 20
195.375
 30
0.0
 10
420.75
 20
194.468752
 30
0.0
 10
419.58333
 20
194.25
 30
0.0
 10
414.75
 20
194.25
 30
0.0
  0
LWPOLYLINE
  5
334
330
1F
100
AcDbEntity
  8
0
 62
     7
100
AcDbPolyline
 90
        3
 70
     0
 43
0.0
 10
411.0
 20
207.75
 10
411.0
 20
196.5
 10
415.875
 20
196.5
  0
LWPOLYLINE
  5
335
330
1F
100
AcDbEntity
  8
0
 62
     7
100
AcDbPolyline
 90
        3
 70
     0
 43
0.0
 10
414.75
 20
194.25
 10
408.75
 20
194.25
 10
408.75
 20
206.625
  0
SPLINE
  5
336
330
1F
100
AcDbEntity
  8
0
 62
     7
100
AcDbSpline
210
0.0
220
0.0
230
1.0
 70
     8
 71
     3
 72
     8
 73
     4
 74
     0
 42
0.000000001
 43
0.0000001
 40
0.0
 40
0.0
 40
0.0
 40
0.0
 40
1.0
 40
1.0
 40
1.0
 40
1.0
 10
431.625
 20
219.0
 30
0.0
 10
437.458335
 20
219.0
 30
0.0
 10
438.75
 20
218.796052
 30
0.0
 10
438.75
 20
217.875
 30
0.0
  0
SPLINE
  5
337
330
1F
100
AcDbEntity
  8
0
 62
     7
100
AcDbSpline
210
0.0
220
0.0
230
1.0
 70
     8
 71
     3
 72
     8
 73
     4
 74
     0
 42
0.000000001
 43
0.0000001
 40
0.0
 40
0.0
 40
0.0
 40
0.0
 40
1.0
 40
1.0
 40
1.0
 40
1.0
 10
438.75
 20
217.875
 30
0.0
 10
438.75
 20
216.968752
 30
0.0
 10
437.58333
 20
216.75
 30
0.0
 10
432.75
 20
216.75
 30
0.0
  0
LWPOLYLINE
  5
338
330
1F
100
AcDbEntity
  8
0
 62
     7
100
AcDbPolyline
 90
        3
 70
     0
 43
0.0
 10
424.5
 20
206.625
 10
424.5
 20
219.0
 10
431.625
 20
219.0
  0
SPLINE
  5
339
330
1F
100
AcDbEntity
  8
0
 62
     7
100
AcDbSpline
210
0.0
220
0.0
230
1.0
 70
     8
 71
     3
 72
     8
 73
     4
 74
     0
 42
0.000000001
 43
0.0000001
 40
0.0
 40
0.0
 40
0.0
 40
0.0
 40
1.0
 40
1.0
 40
1.0
 40
1.0
 10
432.375
 20
208.5
 30
0.0
 10
436.875
 20
208.5
 30
0.0
 10
438.0
 20
208.275
 30
0.0
 10
438.0
 20
207.375
 30
0.0
  0
SPLINE
  5
33A
330
1F
100
AcDbEntity
  8
0
 62
     7
100
AcDbSpline
210
0.0
220
0.0
230
1.0
 70
     8
 71
     3
 72
     8
 73
     4
 74
     0
 42
0.000000001
 43
0.0000001
 40
0.0
 40
0.0
 40
0.0
 40
0.0
 40
1.0
 40
1.0
 40
1.0
 40
1.0
 10
438.0
 20
207.375
 30
0.0
 10
438.0
 20
206.475
 30
0.0
 10
436.875
 20
206.25
 30
0.0
 10
432.375
 20
206.25
 30
0.0
  0
LWPOLYLINE
  5
33B
330
1F
100
AcDbEntity
  8
0
 62
     7
100
AcDbPolyline
 90
        5
 70
     0
 43
0.0
 10
432.75
 20
216.75
 10
426.75
 20
216.75
 10
426.75
 20
212.625
 10
426.75
 20
208.5
 10
432.375
 20
208.5
  0
SPLINE
  5
33C
330
1F
100
AcDbEntity
  8
0
 62
     7
100
AcDbSpline
210
0.0
220
0.0
230
1.0
 70
     8
 71
     3
 72
     8
 73
     4
 74
     0
 42
0.000000001
 43
0.0000001
 40
0.0
 40
0.0
 40
0.0
 40
0.0
 40
1.0
 40
1.0
 40
1.0
 40
1.0
 10
432.375
 20
196.5
 30
0.0
 10
436.875
 20
196.5
 30
0.0
 10
438.0
 20
196.275
 30
0.0
 10
438.0
 20
195.375
 30
0.0
  0
SPLINE
  5
33D
330
1F
100
AcDbEntity
  8
0
 62
     7
100
AcDbSpline
210
0.0
220
0.0
230
1.0
 70
     8
 71
     3
 72
     8
 73
     4
 74
     0
 42
0.000000001
 43
0.0000001
 40
0.0
 40
0.0
 40
0.0
 40
0.0
 40
1.0
 40
1.0
 40
1.0
 40
1.0
 10
438.0
 20
195.375
 30
0.0
 10
438.0
 20
194.458335
 30
0.0
 10
436.749998
 20
194.25
 30
0.0
 10
431.25
 20
194.25
 30
0.0
  0
LWPOLYLINE
  5
33E
330
1F
100
AcDbEntity
  8
0
 62
     7
100
AcDbPolyline
 90
        5
 70
     0
 43
0.0
 10
432.375
 20
206.25
 10
426.75
 20
206.25
 10
426.75
 20
201.375
 10
426.75
 20
196.5
 10
432.375
 20
196.5
  0
SPLINE
  5
33F
330
1F
100
AcDbEntity
  8
0
 62
     7
100
AcDbSpline
210
0.0
220
0.0
230
1.0
 70
     8
 71
     3
 72
     8
 73
     4
 74
     0
 42
0.000000001
 43
0.0000001
 40
0.0
 40
0.0
 40
0.0
 40
0.0
 40
1.0
 40
1.0
 40
1.0
 40
1.0
 10
446.678145
 20
206.062372
 30
0.0
 10
449.742233
 20
212.559172
 30
0.0
 10
452.502518
 20
217.947892
 30
0.0
 10
452.81211
 20
218.0373
 30
0.0
  0
SPLINE
  5
340
330
1F
100
AcDbEntity
  8
0
 62
     7
100
AcDbSpline
210
0.0
220
0.0
230
1.0
 70
     8
 71
     3
 72
     8
 73
     4
 74
     0
 42
0.000000001
 43
0.0000001
 40
0.0
 40
0.0
 40
0.0
 40
0.0
 40
1.0
 40
1.0
 40
1.0
 40
1.0
 10
452.81211
 20
218.0373
 30
0.0
 10
453.121695
 20
218.126715
 30
0.0
 10
455.7375
 20
213.1149
 30
0.0
 10
458.625
 20
206.899942
 30
0.0
  0
SPLINE
  5
341
330
1F
100
AcDbEntity
  8
0
 62
     7
100
AcDbSpline
210
0.0
220
0.0
230
1.0
 70
     8
 71
     3
 72
     8
 73
     4
 74
     0
 42
0.000000001
 43
0.0000001
 40
0.0
 40
0.0
 40
0.0
 40
0.0
 40
1.0
 40
1.0
 40
1.0
 40
1.0
 10
458.625
 20
206.899942
 30
0.0
 10
465.019223
 20
193.13724
 30
0.0
 10
464.618595
 20
194.25
 30
0.0
 10
463.179353
 20
194.25
 30
0.0
  0
SPLINE
  5
342
330
1F
100
AcDbEntity
  8
0
 62
     7
100
AcDbSpline
210
0.0
220
0.0
230
1.0
 70
     8
 71
     3
 72
     8
 73
     4
 74
     0
 42
0.000000001
 43
0.0000001
 40
0.0
 40
0.0
 40
0.0
 40
0.0
 40
1.0
 40
1.0
 40
1.0
 40
1.0
 10
463.179353
 20
194.25
 30
0.0
 10
462.475305
 20
194.25
 30
0.0
 10
461.151893
 20
195.946028
 30
0.0
 10
459.960615
 20
198.375
 30
0.0
  0
LWPOLYLINE
  5
343
330
1F
100
AcDbEntity
  8
0
 62
     7
100
AcDbPolyline
 90
        3
 70
     0
 43
0.0
 10
431.25
 20
194.25
 10
424.5
 20
194.25
 10
424.5
 20
206.625
  0
SPLINE
  5
344
330
1F
100
AcDbEntity
  8
0
 62
     7
100
AcDbSpline
210
0.0
220
0.0
230
1.0
 70
     8
 71
     3
 72
     8
 73
     4
 74
     0
 42
0.000000001
 43
0.0000001
 40
0.0
 40
0.0
 40
0.0
 40
0.0
 40
1.0
 40
1.0
 40
1.0
 40
1.0
 10
445.710615
 20
198.375
 30
0.0
 10
444.4269
 20
195.757567
 30
0.0
 10
443.215987
 20
194.25
 30
0.0
 10
442.397295
 20
194.25
 30
0.0
  0
SPLINE
  5
345
330
1F
100
AcDbEntity
  8
0
 62
     7
100
AcDbSpline
210
0.0
220
0.0
230
1.0
 70
     8
 71
     3
 72
     8
 73
     4
 74
     0
 42
0.000000001
 43
0.0000001
 40
0.0
 40
0.0
 40
0.0
 40
0.0
 40
1.0
 40
1.0
 40
1.0
 40
1.0
 10
442.397295
 20
194.25
 30
0.0
 10
441.3582
 20
194.25
 30
0.0
 10
442.191413
 20
196.54914
 30
0.0
 10
446.678145
 20
206.062372
 30
0.0
  0
LWPOLYLINE
  5
346
330
1F
100
AcDbEntity
  8
0
 62
     7
100
AcDbPolyline
 90
        5
 70
     0
 43
0.0
 10
459.960615
 20
198.375
 10
457.93752
 20
202.5
 10
452.835615
 20
202.5
 10
447.733703
 20
202.5
 10
445.710615
 20
198.375
  0
SPLINE
  5
347
330
1F
100
AcDbEntity
  8
0
 62
     7
100
AcDbSpline
210
0.0
220
0.0
230
1.0
 70
     8
 71
     3
 72
     8
 73
     4
 74
     0
 42
0.000000001
 43
0.0000001
 40
0.0
 40
0.0
 40
0.0
 40
0.0
 40
1.0
 40
1.0
 40
1.0
 40
1.0
 10
456.75
 20
205.14993
 30
0.0
 10
456.75
 20
205.872727
 30
0.0
 10
452.90475
 20
213.155415
 30
0.0
 10
452.664803
 20
212.887072
 30
0.0
  0
SPLINE
  5
348
330
1F
100
AcDbEntity
  8
0
 62
     7
100
AcDbSpline
210
0.0
220
0.0
230
1.0
 70
     8
 71
     3
 72
     8
 73
     4
 74
     0
 42
0.000000001
 43
0.0000001
 40
0.0
 40
0.0
 40
0.0
 40
0.0
 40
1.0
 40
1.0
 40
1.0
 40
1.0
 10
452.664803
 20
212.887072
 30
0.0
 10
452.535908
 20
212.742937
 30
0.0
 10
451.540417
 20
210.853125
 30
0.0
 10
450.452588
 20
208.6875
 30
0.0
  0
LWPOLYLINE
  5
349
330
1F
100
AcDbEntity
  8
0
 62
     7
100
AcDbPolyline
 90
        2
 70
     1
 43
0.0
 10
446.678145
 20
206.062372
 10
446.678145
 20
206.062372
  0
SPLINE
  5
34A
330
1F
100
AcDbEntity
  8
0
 62
     7
100
AcDbSpline
210
0.0
220
0.0
230
1.0
 70
     8
 71
     3
 72
     8
 73
     4
 74
     0
 42
0.000000001
 43
0.0000001
 40
0.0
 40
0.0
 40
0.0
 40
0.0
 40
1.0
 40
1.0
 40
1.0
 40
1.0
 10
452.612363
 20
204.75
 30
0.0
 10
454.888065
 20
204.75
 30
0.0
 10
456.75
 20
204.92997
 30
0.0
 10
456.75
 20
205.14993
 30
0.0
  0
LWPOLYLINE
  5
34B
330
1F
100
AcDbEntity
  8
0
 62
     7
100
AcDbPolyline
 90
        3
 70
     0
 43
0.0
 10
450.452588
 20
208.6875
 10
448.474733
 20
204.75
 10
452.612363
 20
204.75
  0
LWPOLYLINE
  5
34C
330
1F
100
AcDbEntity
  8
0
 62
     7
100
AcDbPolyline
 90
        2
 70
     1
 43
0.0
 10
456.75
 20
205.14993
 10
456.75
 20
205.14993
  0
SPLINE
  5
34D
330
1F
100
AcDbEntity
  8
0
 62
     7
100
AcDbSpline
210
0.0
220
0.0
230
1.0
 70
     8
 71
     3
 72
     8
 73
     4
 74
     0
 42
0.000000001
 43
0.0000001
 40
0.0
 40
0.0
 40
0.0
 40
0.0
 40
1.0
 40
1.0
 40
1.0
 40
1.0
 10
474.83988
 20
218.75271
 30
0.0
 10
484.686847
 20
217.993365
 30
0.0
 10
488.365635
 20
214.848832
 30
0.0
 10
488.818185
 20
206.804422
 30
0.0
  0
SPLINE
  5
34E
330
1F
100
AcDbEntity
  8
0
 62
     7
100
AcDbSpline
210
0.0
220
0.0
230
1.0
 70
     8
 71
     3
 72
     8
 73
     4
 74
     0
 42
0.000000001
 43
0.0000001
 40
0.0
 40
0.0
 40
0.0
 40
0.0
 40
1.0
 40
1.0
 40
1.0
 40
1.0
 10
488.818185
 20
206.804422
 30
0.0
 10
489.027915
 20
203.07642
 30
0.0
 10
488.769585
 20
201.628012
 30
0.0
 10
487.547572
 20
199.680645
 30
0.0
  0
SPLINE
  5
34F
330
1F
100
AcDbEntity
  8
0
 62
     7
100
AcDbSpline
210
0.0
220
0.0
230
1.0
 70
     8
 71
     3
 72
     8
 73
     4
 74
     0
 42
0.000000001
 43
0.0000001
 40
0.0
 40
0.0
 40
0.0
 40
0.0
 40
1.0
 40
1.0
 40
1.0
 40
1.0
 10
487.547572
 20
199.680645
 30
0.0
 10
484.94109
 20
195.526965
 30
0.0
 10
481.988347
 20
194.256
 30
0.0
 10
474.9375
 20
194.252805
 30
0.0
  0
LWPOLYLINE
  5
350
330
1F
100
AcDbEntity
  8
0
 62
     7
100
AcDbPolyline
 90
        3
 70
     0
 43
0.0
 10
468.75
 20
206.736165
 10
468.75
 20
219.222322
 10
474.83988
 20
218.75271
  0
SPLINE
  5
351
330
1F
100
AcDbEntity
  8
0
 62
     7
100
AcDbSpline
210
0.0
220
0.0
230
1.0
 70
     8
 71
     3
 72
     8
 73
     4
 74
     0
 42
0.000000001
 43
0.0000001
 40
0.0
 40
0.0
 40
0.0
 40
0.0
 40
1.0
 40
1.0
 40
1.0
 40
1.0
 10
483.948195
 20
199.352047
 30
0.0
 10
486.141165
 20
201.54501
 30
0.0
 10
486.375
 20
202.209668
 30
0.0
 10
486.375
 20
206.25
 30
0.0
  0
SPLINE
  5
352
330
1F
100
AcDbEntity
  8
0
 62
     7
100
AcDbSpline
210
0.0
220
0.0
230
1.0
 70
     8
 71
     3
 72
     8
 73
     4
 74
     0
 42
0.000000001
 43
0.0000001
 40
0.0
 40
0.0
 40
0.0
 40
0.0
 40
1.0
 40
1.0
 40
1.0
 40
1.0
 10
486.375
 20
206.25
 30
0.0
 10
486.375
 20
210.218197
 30
0.0
 10
486.121897
 20
210.974123
 30
0.0
 10
484.125
 20
212.970023
 30
0.0
  0
SPLINE
  5
353
330
1F
100
AcDbEntity
  8
0
 62
     7
100
AcDbSpline
210
0.0
220
0.0
230
1.0
 70
     8
 71
     3
 72
     8
 73
     4
 74
     0
 42
0.000000001
 43
0.0000001
 40
0.0
 40
0.0
 40
0.0
 40
0.0
 40
1.0
 40
1.0
 40
1.0
 40
1.0
 10
484.125
 20
212.970023
 30
0.0
 10
482.546685
 20
214.547535
 30
0.0
 10
480.668992
 20
215.447423
 30
0.0
 10
477.835132
 20
215.984445
 30
0.0
  0
SPLINE
  5
354
330
1F
100
AcDbEntity
  8
0
 62
     7
100
AcDbSpline
210
0.0
220
0.0
230
1.0
 70
     8
 71
     3
 72
     8
 73
     4
 74
     0
 42
0.000000001
 43
0.0000001
 40
0.0
 40
0.0
 40
0.0
 40
0.0
 40
1.0
 40
1.0
 40
1.0
 40
1.0
 10
477.835132
 20
215.984445
 30
0.0
 10
470.463615
 20
217.38135
 30
0.0
 10
471.0
 20
218.12247
 30
0.0
 10
471.0
 20
206.540363
 30
0.0
  0
LWPOLYLINE
  5
355
330
1F
100
AcDbEntity
  8
0
 62
     7
100
AcDbPolyline
 90
        3
 70
     0
 43
0.0
 10
474.9375
 20
194.252805
 10
468.75
 20
194.25
 10
468.75
 20
206.736165
  0
SPLINE
  5
356
330
1F
100
AcDbEntity
  8
0
 62
     7
100
AcDbSpline
210
0.0
220
0.0
230
1.0
 70
     8
 71
     3
 72
     8
 73
     4
 74
     0
 42
0.000000001
 43
0.0000001
 40
0.0
 40
0.0
 40
0.0
 40
0.0
 40
1.0
 40
1.0
 40
1.0
 40
1.0
 10
476.260695
 20
196.627988
 30
0.0
 10
481.001378
 20
196.895858
 30
0.0
 10
481.761285
 20
197.16513
 30
0.0
 10
483.948195
 20
199.352048
 30
0.0
  0
LWPOLYLINE
  5
357
330
1F
100
AcDbEntity
  8
0
 62
     7
100
AcDbPolyline
 90
        3
 70
     0
 43
0.0
 10
471.0
 20
206.540363
 10
471.0
 20
196.330733
 10
476.260695
 20
196.627988
  0
LWPOLYLINE
  5
358
330
1F
100
AcDbEntity
  8
0
 62
     7
100
AcDbPolyline
 90
        2
 70
     1
 43
0.0
 10
483.948195
 20
199.352048
 10
483.948195
 20
199.352048
  0
SPLINE
  5
359
330
1F
100
AcDbEntity
  8
0
 62
     7
100
AcDbSpline
210
0.0
220
0.0
230
1.0
 70
     8
 71
     3
 72
     8
 73
     4
 74
     0
 42
0.000000001
 43
0.0000001
 40
0.0
 40
0.0
 40
0.0
 40
0.0
 40
1.0
 40
1.0
 40
1.0
 40
1.0
 10
501.0
 20
219.0
 30
0.0
 10
506.499998
 20
219.0
 30
0.0
 10
507.75
 20
218.791665
 30
0.0
 10
507.75
 20
217.875
 30
0.0
  0
SPLINE
  5
35A
330
1F
100
AcDbEntity
  8
0
 62
     7
100
AcDbSpline
210
0.0
220
0.0
230
1.0
 70
     8
 71
     3
 72
     8
 73
     4
 74
     0
 42
0.000000001
 43
0.0000001
 40
0.0
 40
0.0
 40
0.0
 40
0.0
 40
1.0
 40
1.0
 40
1.0
 40
1.0
 10
507.75
 20
217.875
 30
0.0
 10
507.75
 20
216.975
 30
0.0
 10
506.625
 20
216.75
 30
0.0
 10
502.125
 20
216.75
 30
0.0
  0
LWPOLYLINE
  5
35B
330
1F
100
AcDbEntity
  8
0
 62
     7
100
AcDbPolyline
 90
        3
 70
     0
 43
0.0
 10
494.25
 20
206.625
 10
494.25
 20
219.0
 10
501.0
 20
219.0
  0
SPLINE
  5
35C
330
1F
100
AcDbEntity
  8
0
 62
     7
100
AcDbSpline
210
0.0
220
0.0
230
1.0
 70
     8
 71
     3
 72
     8
 73
     4
 74
     0
 42
0.000000001
 43
0.0000001
 40
0.0
 40
0.0
 40
0.0
 40
0.0
 40
1.0
 40
1.0
 40
1.0
 40
1.0
 10
502.125
 20
208.5
 30
0.0
 10
506.625
 20
208.5
 30
0.0
 10
507.75
 20
208.275
 30
0.0
 10
507.75
 20
207.375
 30
0.0
  0
SPLINE
  5
35D
330
1F
100
AcDbEntity
  8
0
 62
     7
100
AcDbSpline
210
0.0
220
0.0
230
1.0
 70
     8
 71
     3
 72
     8
 73
     4
 74
     0
 42
0.000000001
 43
0.0000001
 40
0.0
 40
0.0
 40
0.0
 40
0.0
 40
1.0
 40
1.0
 40
1.0
 40
1.0
 10
507.75
 20
207.375
 30
0.0
 10
507.75
 20
206.475
 30
0.0
 10
506.625
 20
206.25
 30
0.0
 10
502.125
 20
206.25
 30
0.0
  0
LWPOLYLINE
  5
35E
330
1F
100
AcDbEntity
  8
0
 62
     7
100
AcDbPolyline
 90
        5
 70
     0
 43
0.0
 10
502.125
 20
216.75
 10
496.5
 20
216.75
 10
496.5
 20
212.625
 10
496.5
 20
208.5
 10
502.125
 20
208.5
  0
SPLINE
  5
35F
330
1F
100
AcDbEntity
  8
0
 62
     7
100
AcDbSpline
210
0.0
220
0.0
230
1.0
 70
     8
 71
     3
 72
     8
 73
     4
 74
     0
 42
0.000000001
 43
0.0000001
 40
0.0
 40
0.0
 40
0.0
 40
0.0
 40
1.0
 40
1.0
 40
1.0
 40
1.0
 10
502.125
 20
196.5
 30
0.0
 10
506.625
 20
196.5
 30
0.0
 10
507.75
 20
196.275
 30
0.0
 10
507.75
 20
195.375
 30
0.0
  0
SPLINE
  5
360
330
1F
100
AcDbEntity
  8
0
 62
     7
100
AcDbSpline
210
0.0
220
0.0
230
1.0
 70
     8
 71
     3
 72
     8
 73
     4
 74
     0
 42
0.000000001
 43
0.0000001
 40
0.0
 40
0.0
 40
0.0
 40
0.0
 40
1.0
 40
1.0
 40
1.0
 40
1.0
 10
507.75
 20
195.375
 30
0.0
 10
507.75
 20
194.458335
 30
0.0
 10
506.499998
 20
194.25
 30
0.0
 10
501.0
 20
194.25
 30
0.0
  0
LWPOLYLINE
  5
361
330
1F
100
AcDbEntity
  8
0
 62
     7
100
AcDbPolyline
 90
        5
 70
     0
 43
0.0
 10
502.125
 20
206.25
 10
496.5
 20
206.25
 10
496.5
 20
201.375
 10
496.5
 20
196.5
 10
502.125
 20
196.5
  0
LWPOLYLINE
  5
362
330
1F
100
AcDbEntity
  8
0
 62
     7
100
AcDbPolyline
 90
        3
 70
     0
 43
0.0
 10
501.0
 20
194.25
 10
494.25
 20
194.25
 10
494.25
 20
206.625
  0
SPLINE
  5
363
330
1F
100
AcDbEntity
  8
0
 62
     7
100
AcDbSpline
210
0.0
220
0.0
230
1.0
 70
     8
 71
     3
 72
     8
 73
     4
 74
     0
 42
0.000000001
 43
0.0000001
 40
0.0
 40
0.0
 40
0.0
 40
0.0
 40
1.0
 40
1.0
 40
1.0
 40
1.0
 10
516.1875
 20
218.9955
 30
0.0
 10
522.252975
 20
218.98875
 30
0.0
 10
525.554775
 20
217.802723
 30
0.0
 10
526.934827
 20
215.133983
 30
0.0
  0
SPLINE
  5
364
330
1F
100
AcDbEntity
  8
0
 62
     7
100
AcDbSpline
210
0.0
220
0.0
230
1.0
 70
     8
 71
     3
 72
     8
 73
     4
 74
     0
 42
0.000000001
 43
0.0000001
 40
0.0
 40
0.0
 40
0.0
 40
0.0
 40
1.0
 40
1.0
 40
1.0
 40
1.0
 10
526.934827
 20
215.133983
 30
0.0
 10
529.042635
 20
211.057943
 30
0.0
 10
526.846268
 20
206.664015
 30
0.0
 10
522.272033
 20
205.805888
 30
0.0
  0
SPLINE
  5
365
330
1F
100
AcDbEntity
  8
0
 62
     7
100
AcDbSpline
210
0.0
220
0.0
230
1.0
 70
     8
 71
     3
 72
     8
 73
     4
 74
     0
 42
0.000000001
 43
0.0000001
 40
0.0
 40
0.0
 40
0.0
 40
0.0
 40
1.0
 40
1.0
 40
1.0
 40
1.0
 10
522.272033
 20
205.805888
 30
0.0
 10
520.884915
 20
205.54566
 30
0.0
 10
519.75
 20
205.183545
 30
0.0
 10
519.75
 20
205.001183
 30
0.0
  0
SPLINE
  5
366
330
1F
100
AcDbEntity
  8
0
 62
     7
100
AcDbSpline
210
0.0
220
0.0
230
1.0
 70
     8
 71
     3
 72
     8
 73
     4
 74
     0
 42
0.000000001
 43
0.0000001
 40
0.0
 40
0.0
 40
0.0
 40
0.0
 40
1.0
 40
1.0
 40
1.0
 40
1.0
 10
519.75
 20
205.001183
 30
0.0
 10
519.75
 20
204.81882
 30
0.0
 10
521.620628
 20
202.32513
 30
0.0
 10
523.906943
 20
199.45965
 30
0.0
  0
SPLINE
  5
367
330
1F
100
AcDbEntity
  8
0
 62
     7
100
AcDbSpline
210
0.0
220
0.0
230
1.0
 70
     8
 71
     3
 72
     8
 73
     4
 74
     0
 42
0.000000001
 43
0.0000001
 40
0.0
 40
0.0
 40
0.0
 40
0.0
 40
1.0
 40
1.0
 40
1.0
 40
1.0
 10
523.906943
 20
199.45965
 30
0.0
 10
527.39391
 20
195.089385
 30
0.0
 10
527.818523
 20
194.249685
 30
0.0
 10
526.541483
 20
194.249685
 30
0.0
  0
SPLINE
  5
368
330
1F
100
AcDbEntity
  8
0
 62
     7
100
AcDbSpline
210
0.0
220
0.0
230
1.0
 70
     8
 71
     3
 72
     8
 73
     4
 74
     0
 42
0.000000001
 43
0.0000001
 40
0.0
 40
0.0
 40
0.0
 40
0.0
 40
1.0
 40
1.0
 40
1.0
 40
1.0
 10
526.541483
 20
194.249685
 30
0.0
 10
525.534218
 20
194.249685
 30
0.0
 10
523.556633
 20
196.141733
 30
0.0
 10
520.69704
 20
199.841355
 30
0.0
  0
SPLINE
  5
369
330
1F
100
AcDbEntity
  8
0
 62
     7
100
AcDbSpline
210
0.0
220
0.0
230
1.0
 70
     8
 71
     3
 72
     8
 73
     4
 74
     0
 42
0.000000001
 43
0.0000001
 40
0.0
 40
0.0
 40
0.0
 40
0.0
 40
1.0
 40
1.0
 40
1.0
 40
1.0
 10
520.69704
 20
199.841355
 30
0.0
 10
518.319915
 20
202.916775
 30
0.0
 10
515.953125
 20
205.448025
 30
0.0
 10
515.4375
 20
205.466355
 30
0.0
  0
SPLINE
  5
36A
330
1F
100
AcDbEntity
  8
0
 62
     7
100
AcDbSpline
210
0.0
220
0.0
230
1.0
 70
     8
 71
     3
 72
     8
 73
     4
 74
     0
 42
0.000000001
 43
0.0000001
 40
0.0
 40
0.0
 40
0.0
 40
0.0
 40
1.0
 40
1.0
 40
1.0
 40
1.0
 10
515.4375
 20
205.466355
 30
0.0
 10
514.76787
 20
205.49013
 30
0.0
 10
514.5
 20
203.892458
 30
0.0
 10
514.5
 20
199.874685
 30
0.0
  0
SPLINE
  5
36B
330
1F
100
AcDbEntity
  8
0
 62
     7
100
AcDbSpline
210
0.0
220
0.0
230
1.0
 70
     8
 71
     3
 72
     8
 73
     4
 74
     0
 42
0.000000001
 43
0.0000001
 40
0.0
 40
0.0
 40
0.0
 40
0.0
 40
1.0
 40
1.0
 40
1.0
 40
1.0
 10
514.5
 20
199.874685
 30
0.0
 10
514.5
 20
195.374685
 30
0.0
 10
514.275
 20
194.249685
 30
0.0
 10
513.375
 20
194.249685
 30
0.0
  0
SPLINE
  5
36C
330
1F
100
AcDbEntity
  8
0
 62
     7
100
AcDbSpline
210
0.0
220
0.0
230
1.0
 70
     8
 71
     3
 72
     8
 73
     4
 74
     0
 42
0.000000001
 43
0.0000001
 40
0.0
 40
0.0
 40
0.0
 40
0.0
 40
1.0
 40
1.0
 40
1.0
 40
1.0
 10
513.375
 20
194.249685
 30
0.0
 10
512.420453
 20
194.249685
 30
0.0
 10
512.25
 20
196.124685
 30
0.0
 10
512.25
 20
206.624685
 30
0.0
  0
LWPOLYLINE
  5
36D
330
1F
100
AcDbEntity
  8
0
 62
     7
100
AcDbPolyline
 90
        3
 70
     0
 43
0.0
 10
512.25
 20
206.625
 10
512.25
 20
219.0
 10
516.1875
 20
218.9955
  0
SPLINE
  5
36E
330
1F
100
AcDbEntity
  8
0
 62
     7
100
AcDbSpline
210
0.0
220
0.0
230
1.0
 70
     8
 71
     3
 72
     8
 73
     4
 74
     0
 42
0.000000001
 43
0.0000001
 40
0.0
 40
0.0
 40
0.0
 40
0.0
 40
1.0
 40
1.0
 40
1.0
 40
1.0
 10
523.909087
 20
209.590913
 30
0.0
 10
526.119473
 20
211.80129
 30
0.0
 10
526.165155
 20
212.32113
 30
0.0
 10
524.346405
 20
214.567193
 30
0.0
  0
SPLINE
  5
36F
330
1F
100
AcDbEntity
  8
0
 62
     7
100
AcDbSpline
210
0.0
220
0.0
230
1.0
 70
     8
 71
     3
 72
     8
 73
     4
 74
     0
 42
0.000000001
 43
0.0000001
 40
0.0
 40
0.0
 40
0.0
 40
0.0
 40
1.0
 40
1.0
 40
1.0
 40
1.0
 10
524.346405
 20
214.567193
 30
0.0
 10
523.203847
 20
215.97819
 30
0.0
 10
522.192577
 20
216.307485
 30
0.0
 10
518.908905
 20
216.337785
 30
0.0
  0
LWPOLYLINE
  5
370
330
1F
100
AcDbEntity
  8
0
 62
     7
100
AcDbPolyline
 90
        2
 70
     0
 43
0.0
 10
512.25
 20
206.624685
 10
512.25
 20
206.625
  0
SPLINE
  5
371
330
1F
100
AcDbEntity
  8
0
 62
     7
100
AcDbSpline
210
0.0
220
0.0
230
1.0
 70
     8
 71
     3
 72
     8
 73
     4
 74
     0
 42
0.000000001
 43
0.0000001
 40
0.0
 40
0.0
 40
0.0
 40
0.0
 40
1.0
 40
1.0
 40
1.0
 40
1.0
 10
518.246663
 20
207.75
 30
0.0
 10
521.304075
 20
207.75
 30
0.0
 10
522.436268
 20
208.118085
 30
0.0
 10
523.909088
 20
209.590913
 30
0.0
  0
LWPOLYLINE
  5
372
330
1F
100
AcDbEntity
  8
0
 62
     7
100
AcDbPolyline
 90
        5
 70
     0
 43
0.0
 10
518.908905
 20
216.337785
 10
514.875
 20
216.375
 10
514.650075
 20
212.0625
 10
514.425142
 20
207.75
 10
518.246663
 20
207.75
  0
SPLINE
  5
373
330
1F
100
AcDbEntity
  8
0
 62
     7
100
AcDbSpline
210
0.0
220
0.0
230
1.0
 70
     8
 71
     3
 72
     8
 73
     4
 74
     0
 42
0.000000001
 43
0.0000001
 40
0.0
 40
0.0
 40
0.0
 40
0.0
 40
1.0
 40
1.0
 40
1.0
 40
1.0
 10
549.75
 20
206.625
 30
0.0
 10
549.75
 20
217.125
 30
0.0
 10
549.920453
 20
219.0
 30
0.0
 10
550.875
 20
219.0
 30
0.0
  0
SPLINE
  5
374
330
1F
100
AcDbEntity
  8
0
 62
     7
100
AcDbSpline
210
0.0
220
0.0
230
1.0
 70
     8
 71
     3
 72
     8
 73
     4
 74
     0
 42
0.000000001
 43
0.0000001
 40
0.0
 40
0.0
 40
0.0
 40
0.0
 40
1.0
 40
1.0
 40
1.0
 40
1.0
 10
550.875
 20
219.0
 30
0.0
 10
551.76786
 20
219.0
 30
0.0
 10
552.0
 20
217.91667
 30
0.0
 10
552.0
 20
213.75
 30
0.0
  0
LWPOLYLINE
  5
375
330
1F
100
AcDbEntity
  8
0
 62
     7
100
AcDbPolyline
 90
        2
 70
     1
 43
0.0
 10
523.909088
 20
209.590913
 10
523.909088
 20
209.590913
  0
SPLINE
  5
376
330
1F
100
AcDbEntity
  8
0
 62
     7
100
AcDbSpline
210
0.0
220
0.0
230
1.0
 70
     8
 71
     3
 72
     8
 73
     4
 74
     0
 42
0.000000001
 43
0.0000001
 40
0.0
 40
0.0
 40
0.0
 40
0.0
 40
1.0
 40
1.0
 40
1.0
 40
1.0
 10
564.75
 20
213.75
 30
0.0
 10
564.75
 20
217.91667
 30
0.0
 10
564.98214
 20
219.0
 30
0.0
 10
565.875
 20
219.0
 30
0.0
  0
SPLINE
  5
377
330
1F
100
AcDbEntity
  8
0
 62
     7
100
AcDbSpline
210
0.0
220
0.0
230
1.0
 70
     8
 71
     3
 72
     8
 73
     4
 74
     0
 42
0.000000001
 43
0.0000001
 40
0.0
 40
0.0
 40
0.0
 40
0.0
 40
1.0
 40
1.0
 40
1.0
 40
1.0
 10
565.875
 20
219.0
 30
0.0
 10
566.829547
 20
219.0
 30
0.0
 10
567.0
 20
217.125
 30
0.0
 10
567.0
 20
206.625
 30
0.0
  0
SPLINE
  5
378
330
1F
100
AcDbEntity
  8
0
 62
     7
100
AcDbSpline
210
0.0
220
0.0
230
1.0
 70
     8
 71
     3
 72
     8
 73
     4
 74
     0
 42
0.000000001
 43
0.0000001
 40
0.0
 40
0.0
 40
0.0
 40
0.0
 40
1.0
 40
1.0
 40
1.0
 40
1.0
 10
567.0
 20
206.625
 30
0.0
 10
567.0
 20
196.125
 30
0.0
 10
566.829547
 20
194.25
 30
0.0
 10
565.875
 20
194.25
 30
0.0
  0
SPLINE
  5
379
330
1F
100
AcDbEntity
  8
0
 62
     7
100
AcDbSpline
210
0.0
220
0.0
230
1.0
 70
     8
 71
     3
 72
     8
 73
     4
 74
     0
 42
0.000000001
 43
0.0000001
 40
0.0
 40
0.0
 40
0.0
 40
0.0
 40
1.0
 40
1.0
 40
1.0
 40
1.0
 10
565.875
 20
194.25
 30
0.0
 10
564.968752
 20
194.25
 30
0.0
 10
564.75
 20
195.41667
 30
0.0
 10
564.75
 20
200.25
 30
0.0
  0
LWPOLYLINE
  5
37A
330
1F
100
AcDbEntity
  8
0
 62
     7
100
AcDbPolyline
 90
        5
 70
     0
 43
0.0
 10
552.0
 20
213.75
 10
552.0
 20
208.5
 10
558.375
 20
208.5
 10
564.75
 20
208.5
 10
564.75
 20
213.75
  0
SPLINE
  5
37B
330
1F
100
AcDbEntity
  8
0
 62
     7
100
AcDbSpline
210
0.0
220
0.0
230
1.0
 70
     8
 71
     3
 72
     8
 73
     4
 74
     0
 42
0.000000001
 43
0.0000001
 40
0.0
 40
0.0
 40
0.0
 40
0.0
 40
1.0
 40
1.0
 40
1.0
 40
1.0
 10
552.0
 20
200.25
 30
0.0
 10
552.0
 20
195.41667
 30
0.0
 10
551.781248
 20
194.25
 30
0.0
 10
550.875
 20
194.25
 30
0.0
  0
SPLINE
  5
37C
330
1F
100
AcDbEntity
  8
0
 62
     7
100
AcDbSpline
210
0.0
220
0.0
230
1.0
 70
     8
 71
     3
 72
     8
 73
     4
 74
     0
 42
0.000000001
 43
0.0000001
 40
0.0
 40
0.0
 40
0.0
 40
0.0
 40
1.0
 40
1.0
 40
1.0
 40
1.0
 10
550.875
 20
194.25
 30
0.0
 10
549.920453
 20
194.25
 30
0.0
 10
549.75
 20
196.125
 30
0.0
 10
549.75
 20
206.625
 30
0.0
  0
LWPOLYLINE
  5
37D
330
1F
100
AcDbEntity
  8
0
 62
     7
100
AcDbPolyline
 90
        5
 70
     0
 43
0.0
 10
564.75
 20
200.25
 10
564.75
 20
206.25
 10
558.375
 20
206.25
 10
552.0
 20
206.25
 10
552.0
 20
200.25
  0
SPLINE
  5
37E
330
1F
100
AcDbEntity
  8
0
 62
     7
100
AcDbSpline
210
0.0
220
0.0
230
1.0
 70
     8
 71
     3
 72
     8
 73
     4
 74
     0
 42
0.000000001
 43
0.0000001
 40
0.0
 40
0.0
 40
0.0
 40
0.0
 40
1.0
 40
1.0
 40
1.0
 40
1.0
 10
573.0
 20
206.625
 30
0.0
 10
573.0
 20
217.125
 30
0.0
 10
573.170453
 20
219.0
 30
0.0
 10
574.125
 20
219.0
 30
0.0
  0
SPLINE
  5
37F
330
1F
100
AcDbEntity
  8
0
 62
     7
100
AcDbSpline
210
0.0
220
0.0
230
1.0
 70
     8
 71
     3
 72
     8
 73
     4
 74
     0
 42
0.000000001
 43
0.0000001
 40
0.0
 40
0.0
 40
0.0
 40
0.0
 40
1.0
 40
1.0
 40
1.0
 40
1.0
 10
574.125
 20
219.0
 30
0.0
 10
575.079547
 20
219.0
 30
0.0
 10
575.25
 20
217.125
 30
0.0
 10
575.25
 20
206.625
 30
0.0
  0
SPLINE
  5
380
330
1F
100
AcDbEntity
  8
0
 62
     7
100
AcDbSpline
210
0.0
220
0.0
230
1.0
 70
     8
 71
     3
 72
     8
 73
     4
 74
     0
 42
0.000000001
 43
0.0000001
 40
0.0
 40
0.0
 40
0.0
 40
0.0
 40
1.0
 40
1.0
 40
1.0
 40
1.0
 10
575.25
 20
206.625
 30
0.0
 10
575.25
 20
196.125
 30
0.0
 10
575.079547
 20
194.25
 30
0.0
 10
574.125
 20
194.25
 30
0.0
  0
SPLINE
  5
381
330
1F
100
AcDbEntity
  8
0
 62
     7
100
AcDbSpline
210
0.0
220
0.0
230
1.0
 70
     8
 71
     3
 72
     8
 73
     4
 74
     0
 42
0.000000001
 43
0.0000001
 40
0.0
 40
0.0
 40
0.0
 40
0.0
 40
1.0
 40
1.0
 40
1.0
 40
1.0
 10
574.125
 20
194.25
 30
0.0
 10
573.170453
 20
194.25
 30
0.0
 10
573.0
 20
196.125
 30
0.0
 10
573.0
 20
206.625
 30
0.0
  0
LWPOLYLINE
  5
382
330
1F
100
AcDbEntity
  8
0
 62
     7
100
AcDbPolyline
 90
        2
 70
     1
 43
0.0
 10
549.75
 20
206.625
 10
549.75
 20
206.625
  0
LWPOLYLINE
  5
383
330
1F
100
AcDbEntity
  8
0
 62
     7
100
AcDbPolyline
 90
        2
 70
     1
 43
0.0
 10
573.0
 20
206.625
 10
573.0
 20
206.625
  0
SPLINE
  5
384
330
1F
100
AcDbEntity
  8
0
 62
     7
100
AcDbSpline
210
0.0
220
0.0
230
1.0
 70
     8
 71
     3
 72
     8
 73
     4
 74
     0
 42
0.000000001
 43
0.0000001
 40
0.0
 40
0.0
 40
0.0
 40
0.0
 40
1.0
 40
1.0
 40
1.0
 40
1.0
 10
586.95939
 20
218.784705
 30
0.0
 10
591.464145
 20
218.444018
 30
0.0
 10
593.046592
 20
217.997978
 30
0.0
 10
594.45939
 20
216.670718
 30
0.0
  0
SPLINE
  5
385
330
1F
100
AcDbEntity
  8
0
 62
     7
100
AcDbSpline
210
0.0
220
0.0
230
1.0
 70
     8
 71
     3
 72
     8
 73
     4
 74
     0
 42
0.000000001
 43
0.0000001
 40
0.0
 40
0.0
 40
0.0
 40
0.0
 40
1.0
 40
1.0
 40
1.0
 40
1.0
 10
594.45939
 20
216.670718
 30
0.0
 10
596.372932
 20
214.873035
 30
0.0
 10
596.868195
 20
211.056488
 30
0.0
 10
595.515832
 20
208.52958
 30
0.0
  0
SPLINE
  5
386
330
1F
100
AcDbEntity
  8
0
 62
     7
100
AcDbSpline
210
0.0
220
0.0
230
1.0
 70
     8
 71
     3
 72
     8
 73
     4
 74
     0
 42
0.000000001
 43
0.0000001
 40
0.0
 40
0.0
 40
0.0
 40
0.0
 40
1.0
 40
1.0
 40
1.0
 40
1.0
 10
595.515832
 20
208.52958
 30
0.0
 10
594.572993
 20
206.767875
 30
0.0
 10
590.909977
 20
205.5
 30
0.0
 10
586.763085
 20
205.5
 30
0.0
  0
LWPOLYLINE
  5
387
330
1F
100
AcDbEntity
  8
0
 62
     7
100
AcDbPolyline
 90
        3
 70
     0
 43
0.0
 10
581.25
 20
206.733255
 10
581.25
 20
219.21651
 10
586.95939
 20
218.784705
  0
SPLINE
  5
388
330
1F
100
AcDbEntity
  8
0
 62
     7
100
AcDbSpline
210
0.0
220
0.0
230
1.0
 70
     8
 71
     3
 72
     8
 73
     4
 74
     0
 42
0.000000001
 43
0.0000001
 40
0.0
 40
0.0
 40
0.0
 40
0.0
 40
1.0
 40
1.0
 40
1.0
 40
1.0
 10
583.5
 20
199.875
 30
0.0
 10
583.5
 20
195.375
 30
0.0
 10
583.275
 20
194.25
 30
0.0
 10
582.375
 20
194.25
 30
0.0
  0
SPLINE
  5
389
330
1F
100
AcDbEntity
  8
0
 62
     7
100
AcDbSpline
210
0.0
220
0.0
230
1.0
 70
     8
 71
     3
 72
     8
 73
     4
 74
     0
 42
0.000000001
 43
0.0000001
 40
0.0
 40
0.0
 40
0.0
 40
0.0
 40
1.0
 40
1.0
 40
1.0
 40
1.0
 10
582.375
 20
194.25
 30
0.0
 10
581.420063
 20
194.25
 30
0.0
 10
581.25
 20
196.13703
 30
0.0
 10
581.25
 20
206.733255
 30
0.0
  0
LWPOLYLINE
  5
38A
330
1F
100
AcDbEntity
  8
0
 62
     7
100
AcDbPolyline
 90
        3
 70
     0
 43
0.0
 10
586.763085
 20
205.5
 10
583.5
 20
205.5
 10
583.5
 20
199.875
  0
SPLINE
  5
38B
330
1F
100
AcDbEntity
  8
0
 62
     7
100
AcDbSpline
210
0.0
220
0.0
230
1.0
 70
     8
 71
     3
 72
     8
 73
     4
 74
     0
 42
0.000000001
 43
0.0000001
 40
0.0
 40
0.0
 40
0.0
 40
0.0
 40
1.0
 40
1.0
 40
1.0
 40
1.0
 10
592.333117
 20
208.917525
 30
0.0
 10
593.249902
 20
209.559667
 30
0.0
 10
594.0
 20
210.84516
 30
0.0
 10
594.0
 20
211.774178
 30
0.0
  0
SPLINE
  5
38C
330
1F
100
AcDbEntity
  8
0
 62
     7
100
AcDbSpline
210
0.0
220
0.0
230
1.0
 70
     8
 71
     3
 72
     8
 73
     4
 74
     0
 42
0.000000001
 43
0.0000001
 40
0.0
 40
0.0
 40
0.0
 40
0.0
 40
1.0
 40
1.0
 40
1.0
 40
1.0
 10
594.0
 20
211.774178
 30
0.0
 10
594.0
 20
214.803135
 30
0.0
 10
592.377075
 20
216.043657
 30
0.0
 10
587.795827
 20
216.516487
 30
0.0
  0
LWPOLYLINE
  5
38D
330
1F
100
AcDbEntity
  8
0
 62
     7
100
AcDbPolyline
 90
        2
 70
     1
 43
0.0
 10
581.25
 20
206.733255
 10
581.25
 20
206.733255
  0
SPLINE
  5
38E
330
1F
100
AcDbEntity
  8
0
 62
     7
100
AcDbSpline
210
0.0
220
0.0
230
1.0
 70
     8
 71
     3
 72
     8
 73
     4
 74
     0
 42
0.000000001
 43
0.0000001
 40
0.0
 40
0.0
 40
0.0
 40
0.0
 40
1.0
 40
1.0
 40
1.0
 40
1.0
 10
587.083117
 20
207.75
 30
0.0
 10
589.112273
 20
207.75
 30
0.0
 10
591.389153
 20
208.256347
 30
0.0
 10
592.333117
 20
208.917525
 30
0.0
  0
LWPOLYLINE
  5
38F
330
1F
100
AcDbEntity
  8
0
 62
     7
100
AcDbPolyline
 90
        5
 70
     0
 43
0.0
 10
587.795827
 20
216.516487
 10
583.5
 20
216.959857
 10
583.5
 20
212.354925
 10
583.5
 20
207.75
 10
587.083117
 20
207.75
  0
SPLINE
  5
390
330
1F
100
AcDbEntity
  8
0
 62
     7
100
AcDbSpline
210
0.0
220
0.0
230
1.0
 70
     8
 71
     3
 72
     8
 73
     4
 74
     0
 42
0.000000001
 43
0.0000001
 40
0.0
 40
0.0
 40
0.0
 40
0.0
 40
1.0
 40
1.0
 40
1.0
 40
1.0
 10
135.75
 20
258.39009
 30
0.0
 10
115.390395
 20
261.567165
 30
0.0
 10
98.27193
 20
271.72506
 30
0.0
 10
87.835395
 20
286.82205
 30
0.0
  0
SPLINE
  5
391
330
1F
100
AcDbEntity
  8
0
 62
     7
100
AcDbSpline
210
0.0
220
0.0
230
1.0
 70
     8
 71
     3
 72
     8
 73
     4
 74
     0
 42
0.000000001
 43
0.0000001
 40
0.0
 40
0.0
 40
0.0
 40
0.0
 40
1.0
 40
1.0
 40
1.0
 40
1.0
 10
87.835395
 20
286.82205
 30
0.0
 10
83.701538
 20
292.801883
 30
0.0
 10
76.95012
 20
306.22536
 30
0.0
 10
77.399033
 20
307.572098
 30
0.0
  0
SPLINE
  5
392
330
1F
100
AcDbEntity
  8
0
 62
     7
100
AcDbSpline
210
0.0
220
0.0
230
1.0
 70
     8
 71
     3
 72
     8
 73
     4
 74
     0
 42
0.000000001
 43
0.0000001
 40
0.0
 40
0.0
 40
0.0
 40
0.0
 40
1.0
 40
1.0
 40
1.0
 40
1.0
 10
77.399033
 20
307.572098
 30
0.0
 10
77.68686
 20
308.43558
 30
0.0
 10
95.212523
 20
315.88749
 30
0.0
 10
96.189533
 20
315.561825
 30
0.0
  0
SPLINE
  5
393
330
1F
100
AcDbEntity
  8
0
 62
     7
100
AcDbSpline
210
0.0
220
0.0
230
1.0
 70
     8
 71
     3
 72
     8
 73
     4
 74
     0
 42
0.000000001
 43
0.0000001
 40
0.0
 40
0.0
 40
0.0
 40
0.0
 40
1.0
 40
1.0
 40
1.0
 40
1.0
 10
96.189533
 20
315.561825
 30
0.0
 10
96.523575
 20
315.450473
 30
0.0
 10
97.94769
 20
312.71211
 30
0.0
 10
99.35424
 20
309.476572
 30
0.0
  0
SPLINE
  5
394
330
1F
100
AcDbEntity
  8
0
 62
     7
100
AcDbSpline
210
0.0
220
0.0
230
1.0
 70
     8
 71
     3
 72
     8
 73
     4
 74
     0
 42
0.000000001
 43
0.0000001
 40
0.0
 40
0.0
 40
0.0
 40
0.0
 40
1.0
 40
1.0
 40
1.0
 40
1.0
 10
99.35424
 20
309.476572
 30
0.0
 10
107.744228
 20
290.176695
 30
0.0
 10
121.399852
 20
278.082427
 30
0.0
 10
140.625
 20
272.924632
 30
0.0
  0
SPLINE
  5
395
330
1F
100
AcDbEntity
  8
0
 62
     7
100
AcDbSpline
210
0.0
220
0.0
230
1.0
 70
     8
 71
     3
 72
     8
 73
     4
 74
     0
 42
0.000000001
 43
0.0000001
 40
0.0
 40
0.0
 40
0.0
 40
0.0
 40
1.0
 40
1.0
 40
1.0
 40
1.0
 10
140.625
 20
272.924632
 30
0.0
 10
149.00793
 20
270.67563
 30
0.0
 10
163.014113
 20
270.635812
 30
0.0
 10
171.107647
 20
272.837985
 30
0.0
  0
SPLINE
  5
396
330
1F
100
AcDbEntity
  8
0
 62
     7
100
AcDbSpline
210
0.0
220
0.0
230
1.0
 70
     8
 71
     3
 72
     8
 73
     4
 74
     0
 42
0.000000001
 43
0.0000001
 40
0.0
 40
0.0
 40
0.0
 40
0.0
 40
1.0
 40
1.0
 40
1.0
 40
1.0
 10
171.107647
 20
272.837985
 30
0.0
 10
192.613313
 20
278.68947
 30
0.0
 10
203.84589
 20
294.87567
 30
0.0
 10
199.086
 20
313.154925
 30
0.0
  0
SPLINE
  5
397
330
1F
100
AcDbEntity
  8
0
 62
     7
100
AcDbSpline
210
0.0
220
0.0
230
1.0
 70
     8
 71
     3
 72
     8
 73
     4
 74
     0
 42
0.000000001
 43
0.0000001
 40
0.0
 40
0.0
 40
0.0
 40
0.0
 40
1.0
 40
1.0
 40
1.0
 40
1.0
 10
199.086
 20
313.154925
 30
0.0
 10
197.48523
 20
319.302292
 30
0.0
 10
195.027232
 20
323.202922
 30
0.0
 10
188.350155
 20
330.191737
 30
0.0
  0
SPLINE
  5
398
330
1F
100
AcDbEntity
  8
0
 62
     7
100
AcDbSpline
210
0.0
220
0.0
230
1.0
 70
     8
 71
     3
 72
     8
 73
     4
 74
     0
 42
0.000000001
 43
0.0000001
 40
0.0
 40
0.0
 40
0.0
 40
0.0
 40
1.0
 40
1.0
 40
1.0
 40
1.0
 10
188.350155
 20
330.191737
 30
0.0
 10
180.76863
 20
338.127232
 30
0.0
 10
170.563897
 20
344.76714
 30
0.0
 10
147.75
 20
356.609033
 30
0.0
  0
SPLINE
  5
399
330
1F
100
AcDbEntity
  8
0
 62
     7
100
AcDbSpline
210
0.0
220
0.0
230
1.0
 70
     8
 71
     3
 72
     8
 73
     4
 74
     0
 42
0.000000001
 43
0.0000001
 40
0.0
 40
0.0
 40
0.0
 40
0.0
 40
1.0
 40
1.0
 40
1.0
 40
1.0
 10
147.75
 20
356.609033
 30
0.0
 10
106.662593
 20
377.936063
 30
0.0
 10
94.409678
 20
387.395197
 30
0.0
 10
85.910798
 20
404.348325
 30
0.0
  0
SPLINE
  5
39A
330
1F
100
AcDbEntity
  8
0
 62
     7
100
AcDbSpline
210
0.0
220
0.0
230
1.0
 70
     8
 71
     3
 72
     8
 73
     4
 74
     0
 42
0.000000001
 43
0.0000001
 40
0.0
 40
0.0
 40
0.0
 40
0.0
 40
1.0
 40
1.0
 40
1.0
 40
1.0
 10
85.910798
 20
404.348325
 30
0.0
 10
81.87921
 20
412.39032
 30
0.0
 10
80.662635
 20
418.92915
 30
0.0
 10
81.186487
 20
429.740437
 30
0.0
  0
SPLINE
  5
39B
330
1F
100
AcDbEntity
  8
0
 62
     7
100
AcDbSpline
210
0.0
220
0.0
230
1.0
 70
     8
 71
     3
 72
     8
 73
     4
 74
     0
 42
0.000000001
 43
0.0000001
 40
0.0
 40
0.0
 40
0.0
 40
0.0
 40
1.0
 40
1.0
 40
1.0
 40
1.0
 10
81.186487
 20
429.740437
 30
0.0
 10
82.41669
 20
455.129498
 30
0.0
 10
99.23001
 20
473.964128
 30
0.0
 10
127.125
 20
481.20174
 30
0.0
  0
SPLINE
  5
39C
330
1F
100
AcDbEntity
  8
0
 62
     7
100
AcDbSpline
210
0.0
220
0.0
230
1.0
 70
     8
 71
     3
 72
     8
 73
     4
 74
     0
 42
0.000000001
 43
0.0000001
 40
0.0
 40
0.0
 40
0.0
 40
0.0
 40
1.0
 40
1.0
 40
1.0
 40
1.0
 10
127.125
 20
481.20174
 30
0.0
 10
136.46529
 20
483.625155
 30
0.0
 10
156.00216
 20
484.501358
 30
0.0
 10
167.743823
 20
483.023423
 30
0.0
  0
SPLINE
  5
39D
330
1F
100
AcDbEntity
  8
0
 62
     7
100
AcDbSpline
210
0.0
220
0.0
230
1.0
 70
     8
 71
     3
 72
     8
 73
     4
 74
     0
 42
0.000000001
 43
0.0000001
 40
0.0
 40
0.0
 40
0.0
 40
0.0
 40
1.0
 40
1.0
 40
1.0
 40
1.0
 10
167.743823
 20
483.023423
 30
0.0
 10
194.838435
 20
479.613007
 30
0.0
 10
212.76678
 20
466.252125
 30
0.0
 10
223.629878
 20
441.375
 30
0.0
  0
SPLINE
  5
39E
330
1F
100
AcDbEntity
  8
0
 62
     7
100
AcDbSpline
210
0.0
220
0.0
230
1.0
 70
     8
 71
     3
 72
     8
 73
     4
 74
     0
 42
0.000000001
 43
0.0000001
 40
0.0
 40
0.0
 40
0.0
 40
0.0
 40
1.0
 40
1.0
 40
1.0
 40
1.0
 10
223.629878
 20
441.375
 30
0.0
 10
227.153588
 20
433.305495
 30
0.0
 10
227.663648
 20
434.279565
 30
0.0
 10
217.402365
 20
429.48222
 30
0.0
  0
SPLINE
  5
39F
330
1F
100
AcDbEntity
  8
0
 62
     7
100
AcDbSpline
210
0.0
220
0.0
230
1.0
 70
     8
 71
     3
 72
     8
 73
     4
 74
     0
 42
0.000000001
 43
0.0000001
 40
0.0
 40
0.0
 40
0.0
 40
0.0
 40
1.0
 40
1.0
 40
1.0
 40
1.0
 10
217.402365
 20
429.48222
 30
0.0
 10
212.386058
 20
427.137007
 30
0.0
 10
208.124565
 20
425.37543
 30
0.0
 10
207.932385
 20
425.567617
 30
0.0
  0
SPLINE
  5
3A0
330
1F
100
AcDbEntity
  8
0
 62
     7
100
AcDbSpline
210
0.0
220
0.0
230
1.0
 70
     8
 71
     3
 72
     8
 73
     4
 74
     0
 42
0.000000001
 43
0.0000001
 40
0.0
 40
0.0
 40
0.0
 40
0.0
 40
1.0
 40
1.0
 40
1.0
 40
1.0
 10
207.932385
 20
425.567617
 30
0.0
 10
207.740197
 20
425.759805
 30
0.0
 10
206.49585
 20
428.417767
 30
0.0
 10
205.167165
 20
431.474198
 30
0.0
  0
SPLINE
  5
3A1
330
1F
100
AcDbEntity
  8
0
 62
     7
100
AcDbSpline
210
0.0
220
0.0
230
1.0
 70
     8
 71
     3
 72
     8
 73
     4
 74
     0
 42
0.000000001
 43
0.0000001
 40
0.0
 40
0.0
 40
0.0
 40
0.0
 40
1.0
 40
1.0
 40
1.0
 40
1.0
 10
205.167165
 20
431.474198
 30
0.0
 10
200.589285
 20
442.004895
 30
0.0
 10
197.21529
 20
447.17028
 30
0.0
 10
190.567898
 20
453.824798
 30
0.0
  0
SPLINE
  5
3A2
330
1F
100
AcDbEntity
  8
0
 62
     7
100
AcDbSpline
210
0.0
220
0.0
230
1.0
 70
     8
 71
     3
 72
     8
 73
     4
 74
     0
 42
0.000000001
 43
0.0000001
 40
0.0
 40
0.0
 40
0.0
 40
0.0
 40
1.0
 40
1.0
 40
1.0
 40
1.0
 10
190.567898
 20
453.824798
 30
0.0
 10
183.207487
 20
461.19309
 30
0.0
 10
175.73703
 20
465.409072
 30
0.0
 10
165.44253
 20
468.00438
 30
0.0
  0
SPLINE
  5
3A3
330
1F
100
AcDbEntity
  8
0
 62
     7
100
AcDbSpline
210
0.0
220
0.0
230
1.0
 70
     8
 71
     3
 72
     8
 73
     4
 74
     0
 42
0.000000001
 43
0.0000001
 40
0.0
 40
0.0
 40
0.0
 40
0.0
 40
1.0
 40
1.0
 40
1.0
 40
1.0
 10
165.44253
 20
468.00438
 30
0.0
 10
158.077747
 20
469.861095
 30
0.0
 10
144.437137
 20
470.022803
 30
0.0
 10
137.289668
 20
468.33813
 30
0.0
  0
SPLINE
  5
3A4
330
1F
100
AcDbEntity
  8
0
 62
     7
100
AcDbSpline
210
0.0
220
0.0
230
1.0
 70
     8
 71
     3
 72
     8
 73
     4
 74
     0
 42
0.000000001
 43
0.0000001
 40
0.0
 40
0.0
 40
0.0
 40
0.0
 40
1.0
 40
1.0
 40
1.0
 40
1.0
 10
137.289668
 20
468.33813
 30
0.0
 10
126.164452
 20
465.715905
 30
0.0
 10
116.358322
 20
458.437823
 30
0.0
 10
112.076497
 20
449.625
 30
0.0
  0
SPLINE
  5
3A5
330
1F
100
AcDbEntity
  8
0
 62
     7
100
AcDbSpline
210
0.0
220
0.0
230
1.0
 70
     8
 71
     3
 72
     8
 73
     4
 74
     0
 42
0.000000001
 43
0.0000001
 40
0.0
 40
0.0
 40
0.0
 40
0.0
 40
1.0
 40
1.0
 40
1.0
 40
1.0
 10
112.076497
 20
449.625
 30
0.0
 10
110.109547
 20
445.576643
 30
0.0
 10
109.889355
 20
444.37227
 30
0.0
 10
109.88256
 20
437.625
 30
0.0
  0
SPLINE
  5
3A6
330
1F
100
AcDbEntity
  8
0
 62
     7
100
AcDbSpline
210
0.0
220
0.0
230
1.0
 70
     8
 71
     3
 72
     8
 73
     4
 74
     0
 42
0.000000001
 43
0.0000001
 40
0.0
 40
0.0
 40
0.0
 40
0.0
 40
1.0
 40
1.0
 40
1.0
 40
1.0
 10
109.88256
 20
437.625
 30
0.0
 10
109.87581
 20
430.86264
 30
0.0
 10
110.088472
 20
429.690233
 30
0.0
 10
112.0455
 20
425.7045
 30
0.0
  0
SPLINE
  5
3A7
330
1F
100
AcDbEntity
  8
0
 62
     7
100
AcDbSpline
210
0.0
220
0.0
230
1.0
 70
     8
 71
     3
 72
     8
 73
     4
 74
     0
 42
0.000000001
 43
0.0000001
 40
0.0
 40
0.0
 40
0.0
 40
0.0
 40
1.0
 40
1.0
 40
1.0
 40
1.0
 10
112.0455
 20
425.7045
 30
0.0
 10
114.9555
 20
419.777925
 30
0.0
 10
123.804375
 20
411.036915
 30
0.0
 10
133.19103
 20
404.816723
 30
0.0
  0
SPLINE
  5
3A8
330
1F
100
AcDbEntity
  8
0
 62
     7
100
AcDbSpline
210
0.0
220
0.0
230
1.0
 70
     8
 71
     3
 72
     8
 73
     4
 74
     0
 42
0.000000001
 43
0.0000001
 40
0.0
 40
0.0
 40
0.0
 40
0.0
 40
1.0
 40
1.0
 40
1.0
 40
1.0
 10
133.19103
 20
404.816723
 30
0.0
 10
137.279715
 20
402.10731
 30
0.0
 10
150.481477
 20
394.634445
 30
0.0
 10
162.528278
 20
388.210373
 30
0.0
  0
SPLINE
  5
3A9
330
1F
100
AcDbEntity
  8
0
 62
     7
100
AcDbSpline
210
0.0
220
0.0
230
1.0
 70
     8
 71
     3
 72
     8
 73
     4
 74
     0
 42
0.000000001
 43
0.0000001
 40
0.0
 40
0.0
 40
0.0
 40
0.0
 40
1.0
 40
1.0
 40
1.0
 40
1.0
 10
162.528278
 20
388.210373
 30
0.0
 10
196.183793
 20
370.263225
 30
0.0
 10
204.9165
 20
364.72449
 30
0.0
 10
214.77612
 20
355.07208
 30
0.0
  0
SPLINE
  5
3AA
330
1F
100
AcDbEntity
  8
0
 62
     7
100
AcDbSpline
210
0.0
220
0.0
230
1.0
 70
     8
 71
     3
 72
     8
 73
     4
 74
     0
 42
0.000000001
 43
0.0000001
 40
0.0
 40
0.0
 40
0.0
 40
0.0
 40
1.0
 40
1.0
 40
1.0
 40
1.0
 10
214.77612
 20
355.07208
 30
0.0
 10
226.858027
 20
343.244078
 30
0.0
 10
231.763087
 20
332.708483
 30
0.0
 10
231.73698
 20
318.641745
 30
0.0
  0
SPLINE
  5
3AB
330
1F
100
AcDbEntity
  8
0
 62
     7
100
AcDbSpline
210
0.0
220
0.0
230
1.0
 70
     8
 71
     3
 72
     8
 73
     4
 74
     0
 42
0.000000001
 43
0.0000001
 40
0.0
 40
0.0
 40
0.0
 40
0.0
 40
1.0
 40
1.0
 40
1.0
 40
1.0
 10
231.73698
 20
318.641745
 30
0.0
 10
231.676905
 20
286.295332
 30
0.0
 10
207.700163
 20
262.740278
 30
0.0
 10
170.026155
 20
258.016358
 30
0.0
  0
SPLINE
  5
3AC
330
1F
100
AcDbEntity
  8
0
 62
     7
100
AcDbSpline
210
0.0
220
0.0
230
1.0
 70
     8
 71
     3
 72
     8
 73
     4
 74
     0
 42
0.000000001
 43
0.0000001
 40
0.0
 40
0.0
 40
0.0
 40
0.0
 40
1.0
 40
1.0
 40
1.0
 40
1.0
 10
170.026155
 20
258.016358
 30
0.0
 10
161.73132
 20
256.976273
 30
0.0
 10
143.538983
 20
257.174633
 30
0.0
 10
135.75
 20
258.39009
 30
0.0
  0
LWPOLYLINE
  5
3AD
330
1F
100
AcDbEntity
  8
0
 62
     7
100
AcDbPolyline
 90
        2
 70
     1
 43
0.0
 10
592.333117
 20
208.917525
 10
592.333117
 20
208.917525
  0
SPLINE
  5
3AE
330
1F
100
AcDbEntity
  8
0
 62
     7
100
AcDbSpline
210
0.0
220
0.0
230
1.0
 70
     8
 71
     3
 72
     8
 73
     4
 74
     0
 42
0.000000001
 43
0.0000001
 40
0.0
 40
0.0
 40
0.0
 40
0.0
 40
1.0
 40
1.0
 40
1.0
 40
1.0
 10
635.25
 20
257.721675
 30
0.0
 10
607.573762
 20
261.108158
 30
0.0
 10
583.389998
 20
272.063992
 30
0.0
 10
565.33251
 20
289.395998
 30
0.0
  0
SPLINE
  5
3AF
330
1F
100
AcDbEntity
  8
0
 62
     7
100
AcDbSpline
210
0.0
220
0.0
230
1.0
 70
     8
 71
     3
 72
     8
 73
     4
 74
     0
 42
0.000000001
 43
0.0000001
 40
0.0
 40
0.0
 40
0.0
 40
0.0
 40
1.0
 40
1.0
 40
1.0
 40
1.0
 10
565.33251
 20
289.395998
 30
0.0
 10
548.60169
 20
305.454645
 30
0.0
 10
538.16577
 20
324.46848
 30
0.0
 10
533.167155
 20
348.0
 30
0.0
  0
SPLINE
  5
3B0
330
1F
100
AcDbEntity
  8
0
 62
     7
100
AcDbSpline
210
0.0
220
0.0
230
1.0
 70
     8
 71
     3
 72
     8
 73
     4
 74
     0
 42
0.000000001
 43
0.0000001
 40
0.0
 40
0.0
 40
0.0
 40
0.0
 40
1.0
 40
1.0
 40
1.0
 40
1.0
 10
533.167155
 20
348.0
 30
0.0
 10
530.922172
 20
358.568505
 30
0.0
 10
530.749492
 20
379.267343
 30
0.0
 10
532.816763
 20
390.0
 30
0.0
  0
SPLINE
  5
3B1
330
1F
100
AcDbEntity
  8
0
 62
     7
100
AcDbSpline
210
0.0
220
0.0
230
1.0
 70
     8
 71
     3
 72
     8
 73
     4
 74
     0
 42
0.000000001
 43
0.0000001
 40
0.0
 40
0.0
 40
0.0
 40
0.0
 40
1.0
 40
1.0
 40
1.0
 40
1.0
 10
532.816763
 20
390.0
 30
0.0
 10
541.932368
 20
437.32545
 30
0.0
 10
576.96201
 20
471.641805
 30
0.0
 10
626.374658
 20
481.652828
 30
0.0
  0
SPLINE
  5
3B2
330
1F
100
AcDbEntity
  8
0
 62
     7
100
AcDbSpline
210
0.0
220
0.0
230
1.0
 70
     8
 71
     3
 72
     8
 73
     4
 74
     0
 42
0.000000001
 43
0.0000001
 40
0.0
 40
0.0
 40
0.0
 40
0.0
 40
1.0
 40
1.0
 40
1.0
 40
1.0
 10
626.374658
 20
481.652828
 30
0.0
 10
637.941023
 20
483.99618
 30
0.0
 10
664.979407
 20
484.175288
 30
0.0
 10
675.0
 20
481.97493
 30
0.0
  0
SPLINE
  5
3B3
330
1F
100
AcDbEntity
  8
0
 62
     7
100
AcDbSpline
210
0.0
220
0.0
230
1.0
 70
     8
 71
     3
 72
     8
 73
     4
 74
     0
 42
0.000000001
 43
0.0000001
 40
0.0
 40
0.0
 40
0.0
 40
0.0
 40
1.0
 40
1.0
 40
1.0
 40
1.0
 10
675.0
 20
481.97493
 30
0.0
 10
698.946248
 20
476.716733
 30
0.0
 10
721.229408
 20
463.30083
 30
0.0
 10
736.75824
 20
444.792458
 30
0.0
  0
SPLINE
  5
3B4
330
1F
100
AcDbEntity
  8
0
 62
     7
100
AcDbSpline
210
0.0
220
0.0
230
1.0
 70
     8
 71
     3
 72
     8
 73
     4
 74
     0
 42
0.000000001
 43
0.0000001
 40
0.0
 40
0.0
 40
0.0
 40
0.0
 40
1.0
 40
1.0
 40
1.0
 40
1.0
 10
736.75824
 20
444.792458
 30
0.0
 10
742.576703
 20
437.857605
 30
0.0
 10
748.5
 20
429.590992
 30
0.0
 10
748.5
 20
428.405535
 30
0.0
  0
SPLINE
  5
3B5
330
1F
100
AcDbEntity
  8
0
 62
     7
100
AcDbSpline
210
0.0
220
0.0
230
1.0
 70
     8
 71
     3
 72
     8
 73
     4
 74
     0
 42
0.000000001
 43
0.0000001
 40
0.0
 40
0.0
 40
0.0
 40
0.0
 40
1.0
 40
1.0
 40
1.0
 40
1.0
 10
748.5
 20
428.405535
 30
0.0
 10
748.5
 20
427.81881
 30
0.0
 10
734.041545
 20
417.75
 30
0.0
 10
733.199018
 20
417.75
 30
0.0
  0
SPLINE
  5
3B6
330
1F
100
AcDbEntity
  8
0
 62
     7
100
AcDbSpline
210
0.0
220
0.0
230
1.0
 70
     8
 71
     3
 72
     8
 73
     4
 74
     0
 42
0.000000001
 43
0.0000001
 40
0.0
 40
0.0
 40
0.0
 40
0.0
 40
1.0
 40
1.0
 40
1.0
 40
1.0
 10
733.199018
 20
417.75
 30
0.0
 10
733.02663
 20
417.75
 30
0.0
 10
731.540438
 20
420.196875
 30
0.0
 10
729.89637
 20
423.1875
 30
0.0
  0
SPLINE
  5
3B7
330
1F
100
AcDbEntity
  8
0
 62
     7
100
AcDbSpline
210
0.0
220
0.0
230
1.0
 70
     8
 71
     3
 72
     8
 73
     4
 74
     0
 42
0.000000001
 43
0.0000001
 40
0.0
 40
0.0
 40
0.0
 40
0.0
 40
1.0
 40
1.0
 40
1.0
 40
1.0
 10
729.89637
 20
423.1875
 30
0.0
 10
717.829162
 20
445.13826
 30
0.0
 10
701.440838
 20
460.01439
 30
0.0
 10
683.147557
 20
465.622687
 30
0.0
  0
SPLINE
  5
3B8
330
1F
100
AcDbEntity
  8
0
 62
     7
100
AcDbSpline
210
0.0
220
0.0
230
1.0
 70
     8
 71
     3
 72
     8
 73
     4
 74
     0
 42
0.000000001
 43
0.0000001
 40
0.0
 40
0.0
 40
0.0
 40
0.0
 40
1.0
 40
1.0
 40
1.0
 40
1.0
 10
683.147557
 20
465.622687
 30
0.0
 10
668.910915
 20
469.987313
 30
0.0
 10
649.464825
 20
469.002758
 30
0.0
 10
633.0
 20
463.08372
 30
0.0
  0
SPLINE
  5
3B9
330
1F
100
AcDbEntity
  8
0
 62
     7
100
AcDbSpline
210
0.0
220
0.0
230
1.0
 70
     8
 71
     3
 72
     8
 73
     4
 74
     0
 42
0.000000001
 43
0.0000001
 40
0.0
 40
0.0
 40
0.0
 40
0.0
 40
1.0
 40
1.0
 40
1.0
 40
1.0
 10
633.0
 20
463.08372
 30
0.0
 10
602.740507
 20
452.205563
 30
0.0
 10
581.881672
 20
426.077145
 30
0.0
 10
575.553915
 20
391.125
 30
0.0
  0
SPLINE
  5
3BA
330
1F
100
AcDbEntity
  8
0
 62
     7
100
AcDbSpline
210
0.0
220
0.0
230
1.0
 70
     8
 71
     3
 72
     8
 73
     4
 74
     0
 42
0.000000001
 43
0.0000001
 40
0.0
 40
0.0
 40
0.0
 40
0.0
 40
1.0
 40
1.0
 40
1.0
 40
1.0
 10
575.553915
 20
391.125
 30
0.0
 10
573.739905
 20
381.105105
 30
0.0
 10
573.687127
 20
358.80069
 30
0.0
 10
575.454525
 20
349.125
 30
0.0
  0
SPLINE
  5
3BB
330
1F
100
AcDbEntity
  8
0
 62
     7
100
AcDbSpline
210
0.0
220
0.0
230
1.0
 70
     8
 71
     3
 72
     8
 73
     4
 74
     0
 42
0.000000001
 43
0.0000001
 40
0.0
 40
0.0
 40
0.0
 40
0.0
 40
1.0
 40
1.0
 40
1.0
 40
1.0
 10
575.454525
 20
349.125
 30
0.0
 10
579.178447
 20
328.738223
 30
0.0
 10
587.203447
 20
311.87217
 30
0.0
 10
599.366145
 20
298.870207
 30
0.0
  0
SPLINE
  5
3BC
330
1F
100
AcDbEntity
  8
0
 62
     7
100
AcDbSpline
210
0.0
220
0.0
230
1.0
 70
     8
 71
     3
 72
     8
 73
     4
 74
     0
 42
0.000000001
 43
0.0000001
 40
0.0
 40
0.0
 40
0.0
 40
0.0
 40
1.0
 40
1.0
 40
1.0
 40
1.0
 10
599.366145
 20
298.870207
 30
0.0
 10
614.73273
 20
282.44328
 30
0.0
 10
637.773743
 20
273.0
 30
0.0
 10
662.487825
 20
273.0
 30
0.0
  0
SPLINE
  5
3BD
330
1F
100
AcDbEntity
  8
0
 62
     7
100
AcDbSpline
210
0.0
220
0.0
230
1.0
 70
     8
 71
     3
 72
     8
 73
     4
 74
     0
 42
0.000000001
 43
0.0000001
 40
0.0
 40
0.0
 40
0.0
 40
0.0
 40
1.0
 40
1.0
 40
1.0
 40
1.0
 10
662.487825
 20
273.0
 30
0.0
 10
676.35198
 20
273.0
 30
0.0
 10
686.503875
 20
276.185895
 30
0.0
 10
699.465937
 20
284.604563
 30
0.0
  0
SPLINE
  5
3BE
330
1F
100
AcDbEntity
  8
0
 62
     7
100
AcDbSpline
210
0.0
220
0.0
230
1.0
 70
     8
 71
     3
 72
     8
 73
     4
 74
     0
 42
0.000000001
 43
0.0000001
 40
0.0
 40
0.0
 40
0.0
 40
0.0
 40
1.0
 40
1.0
 40
1.0
 40
1.0
 10
699.465937
 20
284.604563
 30
0.0
 10
708.465735
 20
290.4498
 30
0.0
 10
721.296255
 20
303.395197
 30
0.0
 10
727.361595
 20
312.75
 30
0.0
  0
SPLINE
  5
3BF
330
1F
100
AcDbEntity
  8
0
 62
     7
100
AcDbSpline
210
0.0
220
0.0
230
1.0
 70
     8
 71
     3
 72
     8
 73
     4
 74
     0
 42
0.000000001
 43
0.0000001
 40
0.0
 40
0.0
 40
0.0
 40
0.0
 40
1.0
 40
1.0
 40
1.0
 40
1.0
 10
727.361595
 20
312.75
 30
0.0
 10
729.902385
 20
316.66875
 30
0.0
 10
732.415343
 20
320.501782
 30
0.0
 10
732.945945
 20
321.267855
 30
0.0
  0
SPLINE
  5
3C0
330
1F
100
AcDbEntity
  8
0
 62
     7
100
AcDbSpline
210
0.0
220
0.0
230
1.0
 70
     8
 71
     3
 72
     8
 73
     4
 74
     0
 42
0.000000001
 43
0.0000001
 40
0.0
 40
0.0
 40
0.0
 40
0.0
 40
1.0
 40
1.0
 40
1.0
 40
1.0
 10
732.945945
 20
321.267855
 30
0.0
 10
733.85283
 20
322.57719
 30
0.0
 10
734.348085
 20
322.380832
 30
0.0
 10
741.205342
 20
317.993258
 30
0.0
  0
SPLINE
  5
3C1
330
1F
100
AcDbEntity
  8
0
 62
     7
100
AcDbSpline
210
0.0
220
0.0
230
1.0
 70
     8
 71
     3
 72
     8
 73
     4
 74
     0
 42
0.000000001
 43
0.0000001
 40
0.0
 40
0.0
 40
0.0
 40
0.0
 40
1.0
 40
1.0
 40
1.0
 40
1.0
 10
741.205342
 20
317.993258
 30
0.0
 10
745.2174
 20
315.426158
 30
0.0
 10
748.5
 20
312.98598
 30
0.0
 10
748.5
 20
312.570645
 30
0.0
  0
SPLINE
  5
3C2
330
1F
100
AcDbEntity
  8
0
 62
     7
100
AcDbSpline
210
0.0
220
0.0
230
1.0
 70
     8
 71
     3
 72
     8
 73
     4
 74
     0
 42
0.000000001
 43
0.0000001
 40
0.0
 40
0.0
 40
0.0
 40
0.0
 40
1.0
 40
1.0
 40
1.0
 40
1.0
 10
748.5
 20
312.570645
 30
0.0
 10
748.5
 20
311.510835
 30
0.0
 10
742.374277
 20
302.95431
 30
0.0
 10
736.71402
 20
296.107755
 30
0.0
  0
SPLINE
  5
3C3
330
1F
100
AcDbEntity
  8
0
 62
     7
100
AcDbSpline
210
0.0
220
0.0
230
1.0
 70
     8
 71
     3
 72
     8
 73
     4
 74
     0
 42
0.000000001
 43
0.0000001
 40
0.0
 40
0.0
 40
0.0
 40
0.0
 40
1.0
 40
1.0
 40
1.0
 40
1.0
 10
736.71402
 20
296.107755
 30
0.0
 10
721.260847
 20
277.415858
 30
0.0
 10
700.16352
 20
264.69525
 30
0.0
 10
675.89925
 20
259.439565
 30
0.0
  0
SPLINE
  5
3C4
330
1F
100
AcDbEntity
  8
0
 62
     7
100
AcDbSpline
210
0.0
220
0.0
230
1.0
 70
     8
 71
     3
 72
     8
 73
     4
 74
     0
 42
0.000000001
 43
0.0000001
 40
0.0
 40
0.0
 40
0.0
 40
0.0
 40
1.0
 40
1.0
 40
1.0
 40
1.0
 10
675.89925
 20
259.439565
 30
0.0
 10
670.14675
 20
258.193568
 30
0.0
 10
665.408595
 20
257.81547
 30
0.0
 10
653.25
 20
257.632215
 30
0.0
  0
SPLINE
  5
3C5
330
1F
100
AcDbEntity
  8
0
 62
     7
100
AcDbSpline
210
0.0
220
0.0
230
1.0
 70
     8
 71
     3
 72
     8
 73
     4
 74
     0
 42
0.000000001
 43
0.0000001
 40
0.0
 40
0.0
 40
0.0
 40
0.0
 40
1.0
 40
1.0
 40
1.0
 40
1.0
 10
653.25
 20
257.632215
 30
0.0
 10
644.79375
 20
257.50476
 30
0.0
 10
636.69375
 20
257.545013
 30
0.0
 10
635.25
 20
257.721675
 30
0.0
  0
LWPOLYLINE
  5
3C6
330
1F
100
AcDbEntity
  8
0
 62
     7
100
AcDbPolyline
 90
        2
 70
     1
 43
0.0
 10
135.75
 20
258.39009
 10
135.75
 20
258.39009
  0
LWPOLYLINE
  5
3C7
330
1F
100
AcDbEntity
  8
0
 62
     7
100
AcDbPolyline
 90
        2
 70
     1
 43
0.0
 10
635.25
 20
257.721675
 10
635.25
 20
257.721675
  0
LWPOLYLINE
  5
3C8
330
1F
100
AcDbEntity
  8
0
 62
     7
100
AcDbPolyline
 90
       12
 70
     1
 43
0.0
 10
273.0
 20
370.875
 10
273.0
 20
479.25
 10
291.375
 20
479.25
 10
309.75
 20
479.25
 10
309.75
 20
377.625
 10
309.75
 20
276.0
 10
364.5
 20
276.0
 10
419.25
 20
276.0
 10
419.25
 20
269.25
 10
419.25
 20
262.5
 10
346.125
 20
262.5
 10
273.0
 20
262.5
  0
LWPOLYLINE
  5
3C9
330
1F
100
AcDbEntity
  8
0
 62
     7
100
AcDbPolyline
 90
        8
 70
     1
 43
0.0
 10
449.25
 20
370.875
 10
449.25
 20
479.25
 10
467.625
 20
479.25
 10
486.0
 20
479.25
 10
486.0
 20
370.875
 10
486.0
 20
262.5
 10
467.625
 20
262.5
 10
449.25
 20
262.5
  0
LWPOLYLINE
  5
3CA
330
1F
100
AcDbEntity
  8
0
 62
     7
100
AcDbPolyline
 90
       24
 70
     1
 43
0.0
 10
794.25
 20
370.875
 10
794.25
 20
479.25
 10
869.625
 20
479.25
 10
945.0
 20
479.25
 10
945.0
 20
472.125
 10
945.0
 20
465.0
 10
887.625
 20
465.0
 10
830.25
 20
465.0
 10
830.25
 20
426.375
 10
830.25
 20
387.75
 10
868.875
 20
387.75
 10
907.5
 20
387.75
 10
907.5
 20
380.63181
 10
907.5
 20
373.51362
 10
869.0625
 20
373.31931
 10
830.625
 20
373.125
 10
830.625
 20
324.75
 10
830.625
 20
276.375
 10
887.8125
 20
276.182812
 10
945.0
 20
275.990633
 10
945.0
 20
269.245312
 10
945.0
 20
262.5
 10
869.625
 20
262.5
 10
794.25
 20
262.5
  0
ENDSEC
  0
SECTION
  2
OBJECTS
  0
DICTIONARY
  5
C
330
0
100
AcDbDictionary
281
     1
  3
ACAD_DETAILVIEWSTYLE
350
10054
  3
ACAD_GROUP
350
D
  3
ACAD_IMAGE_VARS
350
1004B
  3
ACAD_LAYOUT
350
10025
  3
ACAD_MATERIAL
350
10041
  3
ACAD_MLEADERSTYLE
350
10047
  3
ACAD_MLINESTYLE
350
17
  3
ACAD_PLOTSETTINGS
350
10000
  3
ACAD_PLOTSTYLENAME
350
10001
  3
ACAD_SCALELIST
350
10003
  3
ACAD_SECTIONVIEWSTYLE
350
10055
  3
ACAD_TABLESTYLE
350
10045
  3
ACAD_VISUALSTYLE
350
10028
  3
ACDB_RECOMPOSE_DATA
350
10050
  3
AcDbVariableDictionary
350
1004C
  3
APPDATA
350
10049
  0
SUN
  5
1004A
330
2E
100
AcDbSun
 90
        1
290
     0
 63
     7
421
 16777215
 40
1.0
291
     1
 91
  2455826
 92
 54000000
292
     0
 70
     2
 71
   256
280
     1
  0
DICTIONARY
  5
10054
102
{ACAD_REACTORS
330
C
102
}
330
C
100
AcDbDictionary
281
     1
  0
DICTIONARY
  5
D
330
C
100
AcDbDictionary
281
     1
  0
RASTERVARIABLES
  5
1004B
102
{ACAD_REACTORS
330
C
102
}
330
C
100
AcDbRasterVariables
 90
        0
 70
     1
 71
     1
 72
     0
  0
DICTIONARY
  5
10025
102
{ACAD_REACTORS
330
C
102
}
330
C
100
AcDbDictionary
281
     1
  3
Model
350
10026
  3
Sheet 1
350
10027
  0
DICTIONARY
  5
10041
102
{ACAD_REACTORS
330
C
102
}
330
C
100
AcDbDictionary
281
     1
  3
ByBlock
350
10043
  3
ByLayer
350
10042
  3
Global
350
10044
  0
DICTIONARY
  5
10047
102
{ACAD_REACTORS
330
C
102
}
330
C
100
AcDbDictionary
281
     1
  3
Standard
350
10048
  0
DICTIONARY
  5
17
330
C
100
AcDbDictionary
281
     1
  3
STANDARD
350
FFFF
  0
DICTIONARY
  5
10000
102
{ACAD_REACTORS
330
C
102
}
330
C
100
AcDbDictionary
281
     1
  0
ACDBDICTIONARYWDFLT
  5
10001
102
{ACAD_REACTORS
330
C
102
}
330
C
100
AcDbDictionary
281
     1
  3
Normal
350
10002
100
AcDbDictionaryWithDefault
340
10002
  0
DICTIONARY
  5
10003
102
{ACAD_REACTORS
330
C
102
}
330
C
100
AcDbDictionary
281
     1
  3
A0
350
10004
  3
A1
350
10005
  3
A2
350
10006
  3
A3
350
10007
  3
A4
350
10008
  3
A5
350
10009
  3
A6
350
1000A
  3
A7
350
1000B
  3
A8
350
1000C
  3
A9
350
1000D
  3
B0
350
1000E
  3
B1
350
1000F
  3
B2
350
10010
  3
B3
350
10011
  3
B4
350
10012
  3
B5
350
10013
  3
B6
350
10014
  3
B7
350
10015
  3
B8
350
10016
  3
B9
350
10017
  3
C0
350
10018
  3
C1
350
10019
  3
C2
350
1001A
  3
C3
350
1001B
  3
C4
350
1001C
  3
C5
350
1001D
  3
C6
350
1001E
  3
C7
350
1001F
  3
C8
350
10020
  3
C9
350
10021
  3
D0
350
10022
  3
D1
350
10023
  3
D2
350
10024
  0
DICTIONARY
  5
10055
102
{ACAD_REACTORS
330
C
102
}
330
C
100
AcDbDictionary
281
     1
  0
DICTIONARY
  5
10045
102
{ACAD_REACTORS
330
C
102
}
330
C
100
AcDbDictionary
281
     1
  3
Standard
350
10046
  0
DICTIONARY
  5
10028
102
{ACAD_REACTORS
330
C
102
}
330
C
100
AcDbDictionary
281
     1
  3
2dWireframe
350
1002D
  3
Basic
350
10030
  3
Brighten
350
10034
  3
ColorChange
350
10038
  3
Conceptual
350
10032
  3
Dim
350
10033
  3
EdgeColorOff
350
1003B
  3
Facepattern
350
10037
  3
Flat
350
10029
  3
FlatWithEdges
350
1002A
  3
Gouraud
350
1002B
  3
GouraudWithEdges
350
1002C
  3
Hidden
350
1002F
  3
JitterOff
350
10039
  3
Linepattern
350
10036
  3
OverhangOff
350
1003A
  3
Realistic
350
10031
  3
Shaded
350
10040
  3
Shaded with edges
350
1003F
  3
Shades of Gray
350
1003C
  3
Sketchy
350
1003D
  3
Thicken
350
10035
  3
Wireframe
350
1002E
  3
X-Ray
350
1003E
  0
XRECORD
  5
10050
102
{ACAD_REACTORS
330
C
102
}
330
C
100
AcDbXrecord
280
     1
 90
        1
330
10046
  0
DICTIONARY
  5
1004C
102
{ACAD_REACTORS
330
C
102
}
330
C
100
AcDbDictionary
281
     1
  3
CANNOSCALE
350
1004D
  3
CMLEADERSTYLE
350
10052
  3
CTABLESTYLE
350
10051
  3
MSLTSCALE
350
10053
  0
DICTIONARY
  5
10049
102
{ACAD_REACTORS
330
C
102
}
330
C
100
AcDbDictionary
281
     1
  0
LAYOUT
  5
10026
102
{ACAD_REACTORS
330
10025
102
}
330
10025
100
AcDbPlotSettings
  1

  2
none_device
  4
Letter_(8.50_x_11.00_Inches)
  6

 40
6.35
 41
6.35
 42
6.35
 43
6.35
 44
215.9
 45
279.4
 46
0.0
 47
0.0
 48
0.0
 49
0.0
140
0.0
141
0.0
142
1.0
143
52.855
 70
  1712
 72
     0
 73
     0
 74
     0
  7

 75
     0
 76
     0
 77
     2
 78
   300
147
0.0189196859332135
148
36.06799999999968
149
558.8
100
AcDbLayout
  1
Model
 70
     1
 71
     0
 10
0.0
 20
0.0
 11
12.0
 21
9.0
 12
0.0
 22
0.0
 32
0.0
 14
22.5
 24
73.74164837500001
 34
0.0
 15
1065.75
 25
543.75
 35
0.0
146
0.0
 13
0.0
 23
0.0
 33
0.0
 16
1.0
 26
0.0
 36
0.0
 17
0.0
 27
1.0
 37
0.0
 76
     0
330
1F
331
2E
  0
LAYOUT
  5
10027
102
{ACAD_REACTORS
330
10025
102
}
330
10025
100
AcDbPlotSettings
  1

  2
none_device
  4

  6

 40
0.0
 41
0.0
 42
0.0
 43
0.0
 44
0.0
 45
0.0
 46
0.0
 47
0.0
 48
0.0
 49
0.0
140
0.0
141
0.0
142
1.0
143
1.0
 70
   688
 72
     1
 73
     0
 74
     5
  7

 75
    16
 76
     0
 77
     2
 78
   300
147
1.0
148
0.0
149
0.0
100
AcDbLayout
  1
Sheet 1
 70
     1
 71
     1
 10
0.0
 20
0.0
 11
0.0
 21
0.0
 12
0.0
 22
0.0
 32
0.0
 14
1.000000000000000E+20
 24
1.000000000000000E+20
 34
1.000000000000000E+20
 15
-1.000000000000000E+20
 25
-1.000000000000000E+20
 35
-1.000000000000000E+20
146
0.0
 13
0.0
 23
0.0
 33
0.0
 16
1.0
 26
0.0
 36
0.0
 17
0.0
 27
1.0
 37
0.0
 76
     0
330
1B
  0
MATERIAL
  5
10043
102
{ACAD_REACTORS
330
10041
102
}
330
10041
100
AcDbMaterial
  1
ByBlock
 72
     1
 94
      127
  0
MATERIAL
  5
10042
102
{ACAD_REACTORS
330
10041
102
}
330
10041
100
AcDbMaterial
  1
ByLayer
 72
     1
 94
      127
  0
MATERIAL
  5
10044
102
{ACAD_REACTORS
330
10041
102
}
330
10041
100
AcDbMaterial
  1
Global
 72
     1
 94
      127
  0
MLEADERSTYLE
  5
10048
102
{ACAD_REACTORS
330
10047
102
}
330
10047
100
AcDbMLeaderStyle
179
     2
170
     2
171
     1
172
     0
 90
        2
 40
0.0
 41
0.0
173
     1
 91
-1056964608
340
14
 92
       -2
290
     1
 42
2.0
291
     1
 43
8.0
  3
Standard
341
0
 44
4.0
300

342
11
174
     1
178
     1
175
     1
176
     0
 93
-1056964608
 45
4.0
292
     0
297
     0
 46
4.0
343
0
 94
-1056964608
 47
1.0
 49
1.0
140
1.0
293
     1
141
0.0
294
     1
177
     0
142
1.0
295
     0
296
     0
143
3.75
271
     0
272
     9
273
     9
298
     0
  0
MLINESTYLE
  5
FFFF
102
{ACAD_REACTORS
330
17
102
}
330
17
100
AcDbMlineStyle
  2
Standard
 70
     0
  3

 62
   256
 51
90.0
 52
90.0
 71
     2
 49
0.5
 62
   256
  6
BYLAYER
 49
-0.5
 62
   256
  6
BYLAYER
  0
ACDBPLACEHOLDER
  5
10002
102
{ACAD_REACTORS
330
10001
102
}
330
10001
  0
SCALE
  5
10004
102
{ACAD_REACTORS
330
10003
102
}
330
10003
100
AcDbScale
 70
     0
300
1:1
140
1.0
141
1.0
290
     1
  0
SCALE
  5
10005
102
{ACAD_REACTORS
330
10003
102
}
330
10003
100
AcDbScale
 70
     0
300
1:2
140
1.0
141
2.0
290
     0
  0
SCALE
  5
10006
102
{ACAD_REACTORS
330
10003
102
}
330
10003
100
AcDbScale
 70
     0
300
1:4
140
1.0
141
4.0
290
     0
  0
SCALE
  5
10007
102
{ACAD_REACTORS
330
10003
102
}
330
10003
100
AcDbScale
 70
     0
300
1:5
140
1.0
141
5.0
290
     0
  0
SCALE
  5
10008
102
{ACAD_REACTORS
330
10003
102
}
330
10003
100
AcDbScale
 70
     0
300
1:8
140
1.0
141
8.0
290
     0
  0
SCALE
  5
10009
102
{ACAD_REACTORS
330
10003
102
}
330
10003
100
AcDbScale
 70
     0
300
1:10
140
1.0
141
10.0
290
     0
  0
SCALE
  5
1000A
102
{ACAD_REACTORS
330
10003
102
}
330
10003
100
AcDbScale
 70
     0
300
1:16
140
1.0
141
16.0
290
     0
  0
SCALE
  5
1000B
102
{ACAD_REACTORS
330
10003
102
}
330
10003
100
AcDbScale
 70
     0
300
1:20
140
1.0
141
20.0
290
     0
  0
SCALE
  5
1000C
102
{ACAD_REACTORS
330
10003
102
}
330
10003
100
AcDbScale
 70
     0
300
1:30
140
1.0
141
30.0
290
     0
  0
SCALE
  5
1000D
102
{ACAD_REACTORS
330
10003
102
}
330
10003
100
AcDbScale
 70
     0
300
1:40
140
1.0
141
40.0
290
     0
  0
SCALE
  5
1000E
102
{ACAD_REACTORS
330
10003
102
}
330
10003
100
AcDbScale
 70
     0
300
1:50
140
1.0
141
50.0
290
     0
  0
SCALE
  5
1000F
102
{ACAD_REACTORS
330
10003
102
}
330
10003
100
AcDbScale
 70
     0
300
1:100
140
1.0
141
100.0
290
     0
  0
SCALE
  5
10010
102
{ACAD_REACTORS
330
10003
102
}
330
10003
100
AcDbScale
 70
     0
300
2:1
140
2.0
141
1.0
290
     0
  0
SCALE
  5
10011
102
{ACAD_REACTORS
330
10003
102
}
330
10003
100
AcDbScale
 70
     0
300
4:1
140
4.0
141
1.0
290
     0
  0
SCALE
  5
10012
102
{ACAD_REACTORS
330
10003
102
}
330
10003
100
AcDbScale
 70
     0
300
8:1
140
8.0
141
1.0
290
     0
  0
SCALE
  5
10013
102
{ACAD_REACTORS
330
10003
102
}
330
10003
100
AcDbScale
 70
     0
300
10:1
140
10.0
141
1.0
290
     0
  0
SCALE
  5
10014
102
{ACAD_REACTORS
330
10003
102
}
330
10003
100
AcDbScale
 70
     0
300
100:1
140
100.0
141
1.0
290
     0
  0
SCALE
  5
10015
102
{ACAD_REACTORS
330
10003
102
}
330
10003
100
AcDbScale
 70
     0
300
1/128" = 1'-0"
140
0.0078125
141
12.0
290
     0
  0
SCALE
  5
10016
102
{ACAD_REACTORS
330
10003
102
}
330
10003
100
AcDbScale
 70
     0
300
1/64" = 1'-0"
140
0.015625
141
12.0
290
     0
  0
SCALE
  5
10017
102
{ACAD_REACTORS
330
10003
102
}
330
10003
100
AcDbScale
 70
     0
300
1/32" = 1'-0"
140
0.03125
141
12.0
290
     0
  0
SCALE
  5
10018
102
{ACAD_REACTORS
330
10003
102
}
330
10003
100
AcDbScale
 70
     0
300
1/16" = 1'-0"
140
0.0625
141
12.0
290
     0
  0
SCALE
  5
10019
102
{ACAD_REACTORS
330
10003
102
}
330
10003
100
AcDbScale
 70
     0
300
3/32" = 1'-0"
140
0.09375
141
12.0
290
     0
  0
SCALE
  5
1001A
102
{ACAD_REACTORS
330
10003
102
}
330
10003
100
AcDbScale
 70
     0
300
1/8" = 1'-0"
140
0.125
141
12.0
290
     0
  0
SCALE
  5
1001B
102
{ACAD_REACTORS
330
10003
102
}
330
10003
100
AcDbScale
 70
     0
300
3/16" = 1'-0"
140
0.1875
141
12.0
290
     0
  0
SCALE
  5
1001C
102
{ACAD_REACTORS
330
10003
102
}
330
10003
100
AcDbScale
 70
     0
300
1/4" = 1'-0"
140
0.25
141
12.0
290
     0
  0
SCALE
  5
1001D
102
{ACAD_REACTORS
330
10003
102
}
330
10003
100
AcDbScale
 70
     0
300
3/8" = 1'-0"
140
0.375
141
12.0
290
     0
  0
SCALE
  5
1001E
102
{ACAD_REACTORS
330
10003
102
}
330
10003
100
AcDbScale
 70
     0
300
1/2" = 1'-0"
140
0.5
141
12.0
290
     0
  0
SCALE
  5
1001F
102
{ACAD_REACTORS
330
10003
102
}
330
10003
100
AcDbScale
 70
     0
300
3/4" = 1'-0"
140
0.75
141
12.0
290
     0
  0
SCALE
  5
10020
102
{ACAD_REACTORS
330
10003
102
}
330
10003
100
AcDbScale
 70
     0
300
1" = 1'-0"
140
1.0
141
12.0
290
     0
  0
SCALE
  5
10021
102
{ACAD_REACTORS
330
10003
102
}
330
10003
100
AcDbScale
 70
     0
300
1-1/2" = 1'-0"
140
1.5
141
12.0
290
     0
  0
SCALE
  5
10022
102
{ACAD_REACTORS
330
10003
102
}
330
10003
100
AcDbScale
 70
     0
300
3" = 1'-0"
140
3.0
141
12.0
290
     0
  0
SCALE
  5
10023
102
{ACAD_REACTORS
330
10003
102
}
330
10003
100
AcDbScale
 70
     0
300
6" = 1'-0"
140
6.0
141
12.0
290
     0
  0
SCALE
  5
10024
102
{ACAD_REACTORS
330
10003
102
}
330
10003
100
AcDbScale
 70
     0
300
1'-0" = 1'-0"
140
12.0
141
12.0
290
     0
  0
TABLESTYLE
  5
10046
102
{ACAD_REACTORS
330
10045
102
}
102
{ACAD_XDICTIONARY
360
1004E
102
}
330
10045
100
AcDbTableStyle
  3
Standard
 70
     0
 71
     0
 40
0.06
 41
0.06
280
     0
281
     0
  7
STANDARD
140
4.5
170
     2
 62
     0
 63
   257
283
     0
 90
        4
 91
        0
  1

274
    -2
284
     1
 64
     0
275
    -2
285
     1
 65
     0
276
    -2
286
     1
 66
     0
277
    -2
287
     1
 67
     0
278
    -2
288
     1
 68
     0
279
    -2
289
     1
 69
     0
  7
STANDARD
140
6.0
170
     5
 62
     0
 63
   257
283
     0
 90
        4
 91
        0
  1

274
    -2
284
     1
 64
     0
275
    -2
285
     1
 65
     0
276
    -2
286
     1
 66
     0
277
    -2
287
     1
 67
     0
278
    -2
288
     1
 68
     0
279
    -2
289
     1
 69
     0
  7
STANDARD
140
4.5
170
     5
 62
     0
 63
   257
283
     0
 90
        4
 91
        0
  1

274
    -2
284
     1
 64
     0
275
    -2
285
     1
 65
     0
276
    -2
286
     1
 66
     0
277
    -2
287
     1
 67
     0
278
    -2
288
     1
 68
     0
279
    -2
289
     1
 69
     0
  0
VISUALSTYLE
  5
1002D
102
{ACAD_REACTORS
330
10028
102
}
330
10028
100
AcDbVisualStyle
  2
2dWireframe
 70
     4
177
     3
291
     0
 70
    58
 90
        0
176
     1
 90
        2
176
     1
 90
        0
176
     1
 90
        0
176
     1
 40
0.6
176
     1
 40
30.0
176
     1
 62
     7
420
 16777215
176
     1
 90
        1
176
     1
 90
        4
176
     1
 62
     7
176
     1
 62
   257
176
     1
 90
        1
176
     1
 90
        1
176
     1
 40
1.0
176
     1
 90
        0
176
     1
 62
   257
176
     1
 40
1.0
176
     1
 90
        1
176
     1
 90
        6
176
     1
 90
        2
176
     1
 62
     7
176
     1
 90
        5
176
     1
 90
        0
176
     1
 90
        0
176
     1
290
     0
176
     1
 90
        1
176
     1
 40
0.0
176
     1
 90
        0
176
     1
290
     1
176
     1
290
     1
176
     1
290
     0
176
     1
290
     0
176
     1
290
     0
176
     1
290
     0
176
     1
290
     0
176
     1
290
     0
176
     1
290
     0
176
     1
 90
       50
176
     1
 40
0.0
176
     1
 40
1.0
176
     1
 90
        0
176
     1
 62
   178
420
        0
176
     1
 90
       50
176
     1
 90
        3
176
     1
 62
     5
420
      255
176
     1
290
     0
176
     1
 90
       50
176
     1
 90
       50
176
     1
 90
       50
176
     1
290
     0
176
     1
 90
       50
176
     1
 62
   256
176
     0
 40
1.0
176
     0
 90
        2
176
     1
  1
strokes_ogs.tif
176
     1
290
     0
176
     1
 40
1.0
176
     1
 40
1.0
176
     1
  0
VISUALSTYLE
  5
10030
102
{ACAD_REACTORS
330
10028
102
}
330
10028
100
AcDbVisualStyle
  2
Basic
 70
     7
177
     3
291
     1
 70
    58
 90
        1
176
     1
 90
        0
176
     1
 90
        1
176
     1
 90
        0
176
     1
 40
0.6
176
     1
 40
30.0
176
     1
 62
     7
420
 16777215
176
     1
 90
        0
176
     1
 90
        4
176
     1
 62
     7
176
     1
 62
   257
176
     1
 90
        1
176
     1
 90
        1
176
     1
 40
1.0
176
     1
 90
        8
176
     1
 62
     7
176
     1
 40
1.0
176
     1
 90
        1
176
     1
 90
        6
176
     1
 90
        2
176
     1
 62
     7
176
     1
 90
        5
176
     1
 90
        0
176
     1
 90
        0
176
     1
290
     0
176
     1
 90
        1
176
     1
 40
0.0
176
     1
 90
        0
176
     1
290
     0
176
     1
290
     1
176
     1
290
     1
176
     1
290
     0
176
     1
290
     0
176
     1
290
     0
176
     1
290
     0
176
     1
290
     0
176
     1
290
     0
176
     1
 90
       50
176
     1
 40
0.0
176
     1
 40
1.0
176
     1
 90
        0
176
     1
 62
   178
420
        0
176
     1
 90
       50
176
     1
 90
        3
176
     1
 62
     5
420
      255
176
     1
290
     0
176
     1
 90
       50
176
     1
 90
       50
176
     1
 90
       50
176
     1
290
     0
176
     1
 90
       50
176
     1
 62
   256
176
     0
 40
1.0
176
     0
 90
        2
176
     1
  1
strokes_ogs.tif
176
     1
290
     0
176
     1
 40
1.0
176
     1
 40
1.0
176
     1
  0
VISUALSTYLE
  5
10034
102
{ACAD_REACTORS
330
10028
102
}
330
10028
100
AcDbVisualStyle
  2
Brighten
 70
    12
177
     3
291
     1
 70
    58
 90
        2
176
     1
 90
        2
176
     1
 90
        0
176
     1
 90
        0
176
     1
 40
0.6
176
     1
 40
30.0
176
     1
 62
     7
420
 16777215
176
     1
 90
        1
176
     1
 90
        4
176
     1
 62
     7
176
     1
 62
   257
176
     1
 90
        1
176
     1
 90
        1
176
     1
 40
1.0
176
     1
 90
        8
176
     1
 62
     7
176
     1
 40
1.0
176
     1
 90
        1
176
     1
 90
        6
176
     1
 90
        2
176
     1
 62
     7
176
     1
 90
        5
176
     1
 90
        0
176
     1
 90
        0
176
     1
290
     0
176
     1
 90
        1
176
     1
 40
50.0
176
     1
 90
        0
176
     1
290
     0
176
     1
290
     1
176
     1
290
     1
176
     1
290
     0
176
     1
290
     0
176
     1
290
     0
176
     1
290
     0
176
     1
290
     0
176
     1
290
     0
176
     1
 90
       50
176
     1
 40
0.0
176
     1
 40
1.0
176
     1
 90
        0
176
     1
 62
   178
420
        0
176
     1
 90
       50
176
     1
 90
        3
176
     1
 62
     5
420
      255
176
     1
290
     0
176
     1
 90
       50
176
     1
 90
       50
176
     1
 90
       50
176
     1
290
     0
176
     1
 90
       50
176
     1
 62
   256
176
     0
 40
1.0
176
     0
 90
        2
176
     1
  1
strokes_ogs.tif
176
     1
290
     0
176
     1
 40
1.0
176
     1
 40
1.0
176
     1
  0
VISUALSTYLE
  5
10038
102
{ACAD_REACTORS
330
10028
102
}
330
10028
100
AcDbVisualStyle
  2
ColorChange
 70
    16
177
     3
291
     1
 70
    58
 90
        2
176
     1
 90
        2
176
     1
 90
        3
176
     1
 90
        0
176
     1
 40
0.6
176
     1
 40
30.0
176
     1
 62
     8
420
  8421504
176
     1
 90
        1
176
     1
 90
        4
176
     1
 62
     7
176
     1
 62
   257
176
     1
 90
        1
176
     1
 90
        1
176
     1
 40
1.0
176
     1
 90
        8
176
     1
 62
     8
420
  8421504
176
     1
 40
1.0
176
     1
 90
        1
176
     1
 90
        6
176
     1
 90
        2
176
     1
 62
     7
176
     1
 90
        5
176
     1
 90
        0
176
     1
 90
        0
176
     1
290
     0
176
     1
 90
        1
176
     1
 40
0.0
176
     1
 90
        0
176
     1
290
     0
176
     1
290
     1
176
     1
290
     1
176
     1
290
     0
176
     1
290
     0
176
     1
290
     0
176
     1
290
     0
176
     1
290
     0
176
     1
290
     0
176
     1
 90
       50
176
     1
 40
0.0
176
     1
 40
1.0
176
     1
 90
        0
176
     1
 62
   178
420
        0
176
     1
 90
       50
176
     1
 90
        3
176
     1
 62
     5
420
      255
176
     1
290
     0
176
     1
 90
       50
176
     1
 90
       50
176
     1
 90
       50
176
     1
290
     0
176
     1
 90
       50
176
     1
 62
   256
176
     0
 40
1.0
176
     0
 90
        2
176
     1
  1
strokes_ogs.tif
176
     1
290
     0
176
     1
 40
1.0
176
     1
 40
1.0
176
     1
  0
VISUALSTYLE
  5
10032
102
{ACAD_REACTORS
330
10028
102
}
330
10028
100
AcDbVisualStyle
  2
Conceptual
 70
     9
177
     3
291
     0
 70
    58
 90
        3
176
     1
 90
        2
176
     1
 90
        0
176
     1
 90
        0
176
     1
 40
0.6
176
     1
 40
30.0
176
     1
 62
     7
420
 16777215
176
     1
 90
        2
176
     1
 90
        2
176
     1
 62
     7
176
     1
 62
   257
176
     1
 90
        1
176
     1
 90
        1
176
     1
 40
179.0
176
     1
 90
        8
176
     1
 62
     7
176
     1
 40
1.0
176
     1
 90
        1
176
     1
 90
        6
176
     1
 90
        2
176
     1
 62
     7
176
     1
 90
        3
176
     1
 90
        0
176
     1
 90
        0
176
     1
290
     0
176
     1
 90
        1
176
     1
 40
0.0
176
     1
 90
        0
176
     1
290
     0
176
     1
290
     1
176
     1
290
     1
176
     1
290
     0
176
     1
290
     0
176
     1
290
     0
176
     1
290
     0
176
     1
290
     0
176
     1
290
     0
176
     1
 90
       50
176
     1
 40
0.0
176
     1
 40
1.0
176
     1
 90
        0
176
     1
 62
   178
420
        0
176
     1
 90
       50
176
     1
 90
        3
176
     1
 62
     5
420
      255
176
     1
290
     0
176
     1
 90
       50
176
     1
 90
       50
176
     1
 90
       50
176
     1
290
     0
176
     1
 90
       50
176
     1
 62
   256
176
     0
 40
1.0
176
     0
 90
        2
176
     1
  1
strokes_ogs.tif
176
     1
290
     0
176
     1
 40
1.0
176
     1
 40
1.0
176
     1
  0
VISUALSTYLE
  5
10033
102
{ACAD_REACTORS
330
10028
102
}
330
10028
100
AcDbVisualStyle
  2
Dim
 70
    11
177
     3
291
     1
 70
    58
 90
        2
176
     1
 90
        2
176
     1
 90
        0
176
     1
 90
        0
176
     1
 40
0.6
176
     1
 40
30.0
176
     1
 62
     7
420
 16777215
176
     1
 90
        1
176
     1
 90
        4
176
     1
 62
     7
176
     1
 62
   257
176
     1
 90
        1
176
     1
 90
        1
176
     1
 40
1.0
176
     1
 90
        8
176
     1
 62
     7
176
     1
 40
1.0
176
     1
 90
        1
176
     1
 90
        6
176
     1
 90
        2
176
     1
 62
     7
176
     1
 90
        5
176
     1
 90
        0
176
     1
 90
        0
176
     1
290
     0
176
     1
 90
        1
176
     1
 40
-50.0
176
     1
 90
        0
176
     1
290
     0
176
     1
290
     1
176
     1
290
     1
176
     1
290
     0
176
     1
290
     0
176
     1
290
     0
176
     1
290
     0
176
     1
290
     0
176
     1
290
     0
176
     1
 90
       50
176
     1
 40
0.0
176
     1
 40
1.0
176
     1
 90
        0
176
     1
 62
   178
420
        0
176
     1
 90
       50
176
     1
 90
        3
176
     1
 62
     5
420
      255
176
     1
290
     0
176
     1
 90
       50
176
     1
 90
       50
176
     1
 90
       50
176
     1
290
     0
176
     1
 90
       50
176
     1
 62
   256
176
     0
 40
1.0
176
     0
 90
        2
176
     1
  1
strokes_ogs.tif
176
     1
290
     0
176
     1
 40
1.0
176
     1
 40
1.0
176
     1
  0
VISUALSTYLE
  5
1003B
102
{ACAD_REACTORS
330
10028
102
}
330
10028
100
AcDbVisualStyle
  2
EdgeColorOff
 70
    22
177
     3
291
     1
 70
    58
 90
        2
176
     0
 90
        2
176
     0
 90
        0
176
     0
 90
        0
176
     0
 40
0.6
176
     0
 40
30.0
176
     0
 62
     7
420
 16777215
176
     0
 90
        1
176
     0
 90
        4
176
     0
 62
     7
176
     0
 62
   257
176
     0
 90
        1
176
     0
 90
        1
176
     0
 40
1.0
176
     0
 90
        8
176
     2
 62
     7
176
     0
 40
1.0
176
     0
 90
        1
176
     0
 90
        6
176
     0
 90
        2
176
     0
 62
     7
176
     0
 90
        5
176
     0
 90
        0
176
     0
 90
        0
176
     0
290
     0
176
     0
 90
        1
176
     0
 40
0.0
176
     0
 90
        0
176
     0
290
     0
176
     0
290
     1
176
     0
290
     1
176
     0
290
     0
176
     0
290
     0
176
     0
290
     0
176
     0
290
     0
176
     0
290
     0
176
     0
290
     0
176
     0
 90
       50
176
     0
 40
0.0
176
     0
 40
1.0
176
     0
 90
        0
176
     0
 62
   178
420
        0
176
     0
 90
       50
176
     0
 90
        3
176
     0
 62
     5
420
      255
176
     0
290
     0
176
     0
 90
       50
176
     0
 90
       50
176
     0
 90
       50
176
     0
290
     0
176
     0
 90
       50
176
     0
 62
   256
176
     0
 40
1.0
176
     0
 90
        2
176
     0
  1
strokes_ogs.tif
176
     0
290
     0
176
     0
 40
1.0
176
     0
 40
1.0
176
     0
  0
VISUALSTYLE
  5
10037
102
{ACAD_REACTORS
330
10028
102
}
330
10028
100
AcDbVisualStyle
  2
Facepattern
 70
    15
177
     3
291
     1
 70
    58
 90
        2
176
     1
 90
        2
176
     1
 90
        0
176
     1
 90
        0
176
     1
 40
0.6
176
     1
 40
30.0
176
     1
 62
     7
420
 16777215
176
     1
 90
        1
176
     1
 90
        4
176
     1
 62
     7
176
     1
 62
   257
176
     1
 90
        1
176
     1
 90
        1
176
     1
 40
1.0
176
     1
 90
        8
176
     1
 62
     7
176
     1
 40
1.0
176
     1
 90
        1
176
     1
 90
        6
176
     1
 90
        2
176
     1
 62
     7
176
     1
 90
        5
176
     1
 90
        0
176
     1
 90
        0
176
     1
290
     0
176
     1
 90
        1
176
     1
 40
0.0
176
     1
 90
        0
176
     1
290
     0
176
     1
290
     1
176
     1
290
     1
176
     1
290
     0
176
     1
290
     0
176
     1
290
     0
176
     1
290
     0
176
     1
290
     0
176
     1
290
     0
176
     1
 90
       50
176
     1
 40
0.0
176
     1
 40
1.0
176
     1
 90
        0
176
     1
 62
   178
420
        0
176
     1
 90
       50
176
     1
 90
        3
176
     1
 62
     5
420
      255
176
     1
290
     0
176
     1
 90
       50
176
     1
 90
       50
176
     1
 90
       50
176
     1
290
     0
176
     1
 90
       50
176
     1
 62
   256
176
     0
 40
1.0
176
     0
 90
        2
176
     1
  1
strokes_ogs.tif
176
     1
290
     0
176
     1
 40
1.0
176
     1
 40
1.0
176
     1
  0
VISUALSTYLE
  5
10029
102
{ACAD_REACTORS
330
10028
102
}
330
10028
100
AcDbVisualStyle
  2
Flat
 70
     0
177
     3
291
     1
 70
    58
 90
        2
176
     1
 90
        1
176
     1
 90
        1
176
     1
 90
        2
176
     1
 40
0.6
176
     1
 40
30.0
176
     1
 62
     7
420
 16777215
176
     1
 90
        0
176
     1
 90
        0
176
     1
 62
     7
176
     1
 62
   257
176
     1
 90
        1
176
     1
 90
        1
176
     1
 40
1.0
176
     1
 90
        8
176
     1
 62
     7
176
     1
 40
1.0
176
     1
 90
        1
176
     1
 90
        6
176
     1
 90
        2
176
     1
 62
     7
176
     1
 90
        5
176
     1
 90
        0
176
     1
 90
        0
176
     1
290
     0
176
     1
 90
       13
176
     1
 40
0.0
176
     1
 90
        0
176
     1
290
     0
176
     1
290
     1
176
     1
290
     1
176
     1
290
     0
176
     1
290
     0
176
     1
290
     0
176
     1
290
     0
176
     1
290
     0
176
     1
290
     0
176
     1
 90
       50
176
     1
 40
0.0
176
     1
 40
1.0
176
     1
 90
        0
176
     1
 62
   178
420
        0
176
     1
 90
       50
176
     1
 90
        3
176
     1
 62
     5
420
      255
176
     1
290
     0
176
     1
 90
       50
176
     1
 90
       50
176
     1
 90
       50
176
     1
290
     0
176
     1
 90
       50
176
     1
 62
   256
176
     0
 40
1.0
176
     0
 90
        2
176
     1
  1
strokes_ogs.tif
176
     1
290
     0
176
     1
 40
1.0
176
     1
 40
1.0
176
     1
  0
VISUALSTYLE
  5
1002A
102
{ACAD_REACTORS
330
10028
102
}
330
10028
100
AcDbVisualStyle
  2
FlatWithEdges
 70
     1
177
     3
291
     1
 70
    58
 90
        2
176
     1
 90
        1
176
     1
 90
        1
176
     1
 90
        2
176
     1
 40
0.6
176
     1
 40
30.0
176
     1
 62
     7
420
 16777215
176
     1
 90
        1
176
     1
 90
        0
176
     1
 62
     7
176
     1
 62
   257
176
     1
 90
        1
176
     1
 90
        1
176
     1
 40
1.0
176
     1
 90
        0
176
     1
 62
   257
176
     1
 40
1.0
176
     1
 90
        1
176
     1
 90
        6
176
     1
 90
        2
176
     1
 62
     7
176
     1
 90
        5
176
     1
 90
        0
176
     1
 90
        0
176
     1
290
     0
176
     1
 90
       13
176
     1
 40
0.0
176
     1
 90
        0
176
     1
290
     0
176
     1
290
     1
176
     1
290
     1
176
     1
290
     0
176
     1
290
     0
176
     1
290
     0
176
     1
290
     0
176
     1
290
     0
176
     1
290
     0
176
     1
 90
       50
176
     1
 40
0.0
176
     1
 40
1.0
176
     1
 90
        0
176
     1
 62
   178
420
        0
176
     1
 90
       50
176
     1
 90
        3
176
     1
 62
     5
420
      255
176
     1
290
     0
176
     1
 90
       50
176
     1
 90
       50
176
     1
 90
       50
176
     1
290
     0
176
     1
 90
       50
176
     1
 62
   256
176
     0
 40
1.0
176
     0
 90
        2
176
     1
  1
strokes_ogs.tif
176
     1
290
     0
176
     1
 40
1.0
176
     1
 40
1.0
176
     1
  0
VISUALSTYLE
  5
1002B
102
{ACAD_REACTORS
330
10028
102
}
330
10028
100
AcDbVisualStyle
  2
Gouraud
 70
     2
177
     3
291
     1
 70
    58
 90
        2
176
     1
 90
        2
176
     1
 90
        1
176
     1
 90
        2
176
     1
 40
0.6
176
     1
 40
30.0
176
     1
 62
     7
420
 16777215
176
     1
 90
        0
176
     1
 90
        0
176
     1
 62
     7
176
     1
 62
   257
176
     1
 90
        1
176
     1
 90
        1
176
     1
 40
1.0
176
     1
 90
        0
176
     1
 62
     7
176
     1
 40
1.0
176
     1
 90
        1
176
     1
 90
        6
176
     1
 90
        2
176
     1
 62
     7
176
     1
 90
        5
176
     1
 90
        0
176
     1
 90
        0
176
     1
290
     0
176
     1
 90
       13
176
     1
 40
0.0
176
     1
 90
        0
176
     1
290
     0
176
     1
290
     1
176
     1
290
     1
176
     1
290
     0
176
     1
290
     0
176
     1
290
     0
176
     1
290
     0
176
     1
290
     0
176
     1
290
     0
176
     1
 90
       50
176
     1
 40
0.0
176
     1
 40
1.0
176
     1
 90
        0
176
     1
 62
   178
420
        0
176
     1
 90
       50
176
     1
 90
        3
176
     1
 62
     5
420
      255
176
     1
290
     0
176
     1
 90
       50
176
     1
 90
       50
176
     1
 90
       50
176
     1
290
     0
176
     1
 90
       50
176
     1
 62
   256
176
     0
 40
1.0
176
     0
 90
        2
176
     1
  1
strokes_ogs.tif
176
     1
290
     0
176
     1
 40
1.0
176
     1
 40
1.0
176
     1
  0
VISUALSTYLE
  5
1002C
102
{ACAD_REACTORS
330
10028
102
}
330
10028
100
AcDbVisualStyle
  2
GouraudWithEdges
 70
     3
177
     3
291
     1
 70
    58
 90
        2
176
     1
 90
        2
176
     1
 90
        1
176
     1
 90
        2
176
     1
 40
0.6
176
     1
 40
30.0
176
     1
 62
     7
420
 16777215
176
     1
 90
        1
176
     1
 90
        0
176
     1
 62
     7
176
     1
 62
   257
176
     1
 90
        1
176
     1
 90
        1
176
     1
 40
1.0
176
     1
 90
        0
176
     1
 62
   257
176
     1
 40
1.0
176
     1
 90
        1
176
     1
 90
        6
176
     1
 90
        2
176
     1
 62
     7
176
     1
 90
        5
176
     1
 90
        0
176
     1
 90
        0
176
     1
290
     0
176
     1
 90
       13
176
     1
 40
0.0
176
     1
 90
        0
176
     1
290
     0
176
     1
290
     1
176
     1
290
     1
176
     1
290
     0
176
     1
290
     0
176
     1
290
     0
176
     1
290
     0
176
     1
290
     0
176
     1
290
     0
176
     1
 90
       50
176
     1
 40
0.0
176
     1
 40
1.0
176
     1
 90
        0
176
     1
 62
   178
420
        0
176
     1
 90
       50
176
     1
 90
        3
176
     1
 62
     5
420
      255
176
     1
290
     0
176
     1
 90
       50
176
     1
 90
       50
176
     1
 90
       50
176
     1
290
     0
176
     1
 90
       50
176
     1
 62
   256
176
     0
 40
1.0
176
     0
 90
        2
176
     1
  1
strokes_ogs.tif
176
     1
290
     0
176
     1
 40
1.0
176
     1
 40
1.0
176
     1
  0
VISUALSTYLE
  5
1002F
102
{ACAD_REACTORS
330
10028
102
}
330
10028
100
AcDbVisualStyle
  2
Hidden
 70
     6
177
     3
291
     0
 70
    58
 90
        1
176
     1
 90
        2
176
     1
 90
        2
176
     1
 90
        0
176
     1
 40
0.6
176
     1
 40
30.0
176
     1
 62
     7
420
 16777215
176
     1
 90
        2
176
     1
 90
        2
176
     1
 62
     7
176
     1
 62
   257
176
     1
 90
        2
176
     1
 90
        1
176
     1
 40
40.0
176
     1
 90
        0
176
     1
 62
   257
176
     1
 40
1.0
176
     1
 90
        1
176
     1
 90
        6
176
     1
 90
        2
176
     1
 62
     7
176
     1
 90
        3
176
     1
 90
        0
176
     1
 90
        0
176
     1
290
     0
176
     1
 90
        1
176
     1
 40
0.0
176
     1
 90
        0
176
     1
290
     0
176
     1
290
     1
176
     1
290
     1
176
     1
290
     0
176
     1
290
     0
176
     1
290
     0
176
     1
290
     0
176
     1
290
     0
176
     1
290
     0
176
     1
 90
       50
176
     1
 40
0.0
176
     1
 40
1.0
176
     1
 90
        0
176
     1
 62
   178
420
        0
176
     1
 90
       50
176
     1
 90
        3
176
     1
 62
     5
420
      255
176
     1
290
     0
176
     1
 90
       50
176
     1
 90
       50
176
     1
 90
       50
176
     1
290
     0
176
     1
 90
       50
176
     1
 62
   256
176
     0
 40
1.0
176
     0
 90
        2
176
     1
  1
strokes_ogs.tif
176
     1
290
     0
176
     1
 40
1.0
176
     1
 40
1.0
176
     1
  0
VISUALSTYLE
  5
10039
102
{ACAD_REACTORS
330
10028
102
}
330
10028
100
AcDbVisualStyle
  2
JitterOff
 70
    20
177
     3
291
     1
 70
    58
 90
        2
176
     0
 90
        2
176
     0
 90
        0
176
     0
 90
        0
176
     0
 40
0.6
176
     0
 40
30.0
176
     0
 62
     7
420
 16777215
176
     0
 90
        1
176
     0
 90
        4
176
     0
 62
     7
176
     0
 62
   257
176
     0
 90
        1
176
     0
 90
        1
176
     0
 40
1.0
176
     0
 90
       10
176
     2
 62
     7
176
     0
 40
1.0
176
     0
 90
        1
176
     0
 90
        6
176
     0
 90
        2
176
     0
 62
     7
176
     0
 90
        5
176
     0
 90
        0
176
     0
 90
        0
176
     0
290
     0
176
     0
 90
        1
176
     0
 40
0.0
176
     0
 90
        0
176
     0
290
     0
176
     0
290
     1
176
     0
290
     1
176
     0
290
     0
176
     0
290
     0
176
     0
290
     0
176
     0
290
     0
176
     0
290
     0
176
     0
290
     0
176
     0
 90
       50
176
     0
 40
0.0
176
     0
 40
1.0
176
     0
 90
        0
176
     0
 62
   178
420
        0
176
     0
 90
       50
176
     0
 90
        3
176
     0
 62
     5
420
      255
176
     0
290
     0
176
     0
 90
       50
176
     0
 90
       50
176
     0
 90
       50
176
     0
290
     0
176
     0
 90
       50
176
     0
 62
   256
176
     0
 40
1.0
176
     0
 90
        2
176
     0
  1
strokes_ogs.tif
176
     0
290
     0
176
     0
 40
1.0
176
     0
 40
1.0
176
     0
  0
VISUALSTYLE
  5
10036
102
{ACAD_REACTORS
330
10028
102
}
330
10028
100
AcDbVisualStyle
  2
Linepattern
 70
    14
177
     3
291
     1
 70
    58
 90
        2
176
     1
 90
        2
176
     1
 90
        0
176
     1
 90
        0
176
     1
 40
0.6
176
     1
 40
30.0
176
     1
 62
     7
420
 16777215
176
     1
 90
        1
176
     1
 90
        4
176
     1
 62
     7
176
     1
 62
   257
176
     1
 90
        7
176
     1
 90
        7
176
     1
 40
1.0
176
     1
 90
        8
176
     1
 62
     7
176
     1
 40
1.0
176
     1
 90
        1
176
     1
 90
        6
176
     1
 90
        2
176
     1
 62
     7
176
     1
 90
        5
176
     1
 90
        0
176
     1
 90
        0
176
     1
290
     0
176
     1
 90
        1
176
     1
 40
0.0
176
     1
 90
        0
176
     1
290
     0
176
     1
290
     1
176
     1
290
     1
176
     1
290
     0
176
     1
290
     0
176
     1
290
     0
176
     1
290
     0
176
     1
290
     0
176
     1
290
     0
176
     1
 90
       50
176
     1
 40
0.0
176
     1
 40
1.0
176
     1
 90
        0
176
     1
 62
   178
420
        0
176
     1
 90
       50
176
     1
 90
        3
176
     1
 62
     5
420
      255
176
     1
290
     0
176
     1
 90
       50
176
     1
 90
       50
176
     1
 90
       50
176
     1
290
     0
176
     1
 90
       50
176
     1
 62
   256
176
     0
 40
1.0
176
     0
 90
        2
176
     1
  1
strokes_ogs.tif
176
     1
290
     0
176
     1
 40
1.0
176
     1
 40
1.0
176
     1
  0
VISUALSTYLE
  5
1003A
102
{ACAD_REACTORS
330
10028
102
}
330
10028
100
AcDbVisualStyle
  2
OverhangOff
 70
    21
177
     3
291
     1
 70
    58
 90
        2
176
     0
 90
        2
176
     0
 90
        0
176
     0
 90
        0
176
     0
 40
0.6
176
     0
 40
30.0
176
     0
 62
     7
420
 16777215
176
     0
 90
        1
176
     0
 90
        4
176
     0
 62
     7
176
     0
 62
   257
176
     0
 90
        1
176
     0
 90
        1
176
     0
 40
1.0
176
     0
 90
        9
176
     2
 62
     7
176
     0
 40
1.0
176
     0
 90
        1
176
     0
 90
        6
176
     0
 90
        2
176
     0
 62
     7
176
     0
 90
        5
176
     0
 90
        0
176
     0
 90
        0
176
     0
290
     0
176
     0
 90
        1
176
     0
 40
0.0
176
     0
 90
        0
176
     0
290
     0
176
     0
290
     1
176
     0
290
     1
176
     0
290
     0
176
     0
290
     0
176
     0
290
     0
176
     0
290
     0
176
     0
290
     0
176
     0
290
     0
176
     0
 90
       50
176
     0
 40
0.0
176
     0
 40
1.0
176
     0
 90
        0
176
     0
 62
   178
420
        0
176
     0
 90
       50
176
     0
 90
        3
176
     0
 62
     5
420
      255
176
     0
290
     0
176
     0
 90
       50
176
     0
 90
       50
176
     0
 90
       50
176
     0
290
     0
176
     0
 90
       50
176
     0
 62
   256
176
     0
 40
1.0
176
     0
 90
        2
176
     0
  1
strokes_ogs.tif
176
     0
290
     0
176
     0
 40
1.0
176
     0
 40
1.0
176
     0
  0
VISUALSTYLE
  5
10031
102
{ACAD_REACTORS
330
10028
102
}
330
10028
100
AcDbVisualStyle
  2
Realistic
 70
     8
177
     3
291
     0
 70
    58
 90
        2
176
     1
 90
        3
176
     1
 90
        0
176
     1
 90
        2
176
     1
 40
0.6
176
     1
 40
30.0
176
     1
 62
     7
420
 16777215
176
     1
 90
        0
176
     1
 90
        0
176
     1
 62
     7
176
     1
 62
   257
176
     1
 90
        1
176
     1
 90
        1
176
     1
 40
1.0
176
     1
 90
        8
176
     1
 62
   257
176
     1
 40
1.0
176
     1
 90
        1
176
     1
 90
        6
176
     1
 90
        2
176
     1
 62
     7
176
     1
 90
        3
176
     1
 90
        0
176
     1
 90
        0
176
     1
290
     0
176
     1
 90
       13
176
     1
 40
0.0
176
     1
 90
        0
176
     1
290
     0
176
     1
290
     1
176
     1
290
     1
176
     1
290
     0
176
     1
290
     0
176
     1
290
     0
176
     1
290
     0
176
     1
290
     0
176
     1
290
     0
176
     1
 90
       50
176
     1
 40
0.0
176
     1
 40
1.0
176
     1
 90
        0
176
     1
 62
   178
420
        0
176
     1
 90
       50
176
     1
 90
        3
176
     1
 62
     5
420
      255
176
     1
290
     0
176
     1
 90
       50
176
     1
 90
       50
176
     1
 90
       50
176
     1
290
     0
176
     1
 90
       50
176
     1
 62
   256
176
     0
 40
1.0
176
     0
 90
        2
176
     1
  1
strokes_ogs.tif
176
     1
290
     0
176
     1
 40
1.0
176
     1
 40
1.0
176
     1
  0
VISUALSTYLE
  5
10040
102
{ACAD_REACTORS
330
10028
102
}
330
10028
100
AcDbVisualStyle
  2
Shaded
 70
    27
177
     3
291
     0
 70
    58
 90
        2
176
     1
 90
        2
176
     1
 90
        1
176
     1
 90
        2
176
     1
 40
0.6
176
     1
 40
30.0
176
     1
 62
     7
420
 16777215
176
     1
 90
        0
176
     1
 90
        4
176
     1
 62
     7
176
     1
 62
   257
176
     1
 90
        1
176
     1
 90
        1
176
     1
 40
1.0
176
     1
 90
        8
176
     1
 62
   257
176
     1
 40
1.0
176
     1
 90
        1
176
     1
 90
        6
176
     1
 90
        2
176
     1
 62
     8
420
  7895160
176
     1
 90
        3
176
     1
 90
        0
176
     1
 90
        0
176
     1
290
     0
176
     1
 90
        5
176
     1
 40
0.0
176
     1
 90
        0
176
     1
290
     0
176
     1
290
     1
176
     1
290
     1
176
     1
290
     0
176
     1
290
     0
176
     1
290
     0
176
     1
290
     0
176
     1
290
     0
176
     1
290
     0
176
     1
 90
       50
176
     1
 40
0.0
176
     1
 40
1.0
176
     1
 90
        0
176
     1
 62
   178
420
        0
176
     1
 90
       50
176
     1
 90
        3
176
     1
 62
     5
420
      255
176
     1
290
     0
176
     1
 90
       50
176
     1
 90
       50
176
     1
 90
       50
176
     1
290
     0
176
     1
 90
       50
176
     1
 62
   256
176
     0
 40
1.0
176
     0
 90
        2
176
     1
  1
strokes_ogs.tif
176
     1
290
     0
176
     1
 40
1.0
176
     1
 40
1.0
176
     1
  0
VISUALSTYLE
  5
1003F
102
{ACAD_REACTORS
330
10028
102
}
330
10028
100
AcDbVisualStyle
  2
Shaded with edges
 70
    26
177
     3
291
     0
 70
    58
 90
        2
176
     1
 90
        2
176
     1
 90
        1
176
     1
 90
        2
176
     1
 40
0.6
176
     1
 40
30.0
176
     1
 62
     7
420
 16777215
176
     1
 90
        1
176
     1
 90
       10
176
     1
 62
     7
176
     1
 62
   257
176
     1
 90
        2
176
     1
 90
        1
176
     1
 40
1.0
176
     1
 90
        8
176
     1
 62
   257
176
     1
 40
1.0
176
     1
 90
        1
176
     1
 90
        6
176
     1
 90
        2
176
     1
 62
     7
176
     1
 90
        3
176
     1
 90
        0
176
     1
 90
        0
176
     1
290
     0
176
     1
 90
        5
176
     1
 40
0.0
176
     1
 90
        0
176
     1
290
     0
176
     1
290
     1
176
     1
290
     1
176
     1
290
     0
176
     1
290
     0
176
     1
290
     0
176
     1
290
     0
176
     1
290
     0
176
     1
290
     0
176
     1
 90
       50
176
     1
 40
0.0
176
     1
 40
1.0
176
     1
 90
        0
176
     1
 62
   178
420
        0
176
     1
 90
       50
176
     1
 90
        3
176
     1
 62
     5
420
      255
176
     1
290
     0
176
     1
 90
       50
176
     1
 90
       50
176
     1
 90
       50
176
     1
290
     0
176
     1
 90
       50
176
     1
 62
   256
176
     0
 40
1.0
176
     0
 90
        2
176
     1
  1
strokes_ogs.tif
176
     1
290
     0
176
     1
 40
1.0
176
     1
 40
1.0
176
     1
  0
VISUALSTYLE
  5
1003C
102
{ACAD_REACTORS
330
10028
102
}
330
10028
100
AcDbVisualStyle
  2
Shades of Gray
 70
    23
177
     3
291
     0
 70
    58
 90
        2
176
     1
 90
        2
176
     1
 90
        3
176
     1
 90
        0
176
     1
 40
0.6
176
     1
 40
30.0
176
     1
 62
     7
420
 16777215
176
     1
 90
        2
176
     1
 90
        2
176
     1
 62
     7
176
     1
 62
     7
176
     1
 90
        1
176
     1
 90
        1
176
     1
 40
40.0
176
     1
 90
        8
176
     1
 62
     7
176
     1
 40
1.0
176
     1
 90
        1
176
     1
 90
        6
176
     1
 90
        2
176
     1
 62
     7
176
     1
 90
        3
176
     1
 90
        0
176
     1
 90
        0
176
     1
290
     0
176
     1
 90
        1
176
     1
 40
0.0
176
     1
 90
        0
176
     1
290
     0
176
     1
290
     1
176
     1
290
     1
176
     1
290
     0
176
     1
290
     0
176
     1
290
     0
176
     1
290
     0
176
     1
290
     0
176
     1
290
     0
176
     1
 90
       50
176
     1
 40
0.0
176
     1
 40
1.0
176
     1
 90
        0
176
     1
 62
   178
420
        0
176
     1
 90
       50
176
     1
 90
        3
176
     1
 62
     5
420
      255
176
     1
290
     0
176
     1
 90
       50
176
     1
 90
       50
176
     1
 90
       50
176
     1
290
     0
176
     1
 90
       50
176
     1
 62
   256
176
     0
 40
1.0
176
     0
 90
        2
176
     1
  1
strokes_ogs.tif
176
     1
290
     0
176
     1
 40
1.0
176
     1
 40
1.0
176
     1
  0
VISUALSTYLE
  5
1003D
102
{ACAD_REACTORS
330
10028
102
}
330
10028
100
AcDbVisualStyle
  2
Sketchy
 70
    24
177
     3
291
     0
 70
    58
 90
        1
176
     1
 90
        2
176
     1
 90
        2
176
     1
 90
        0
176
     1
 40
0.6
176
     1
 40
30.0
176
     1
 62
     7
420
 16777215
176
     1
 90
        2
176
     1
 90
        2
176
     1
 62
     7
176
     1
 62
     7
176
     1
 90
        1
176
     1
 90
        1
176
     1
 40
40.0
176
     1
 90
       11
176
     1
 62
     7
176
     1
 40
1.0
176
     1
 90
        1
176
     1
 90
        6
176
     1
 90
        2
176
     1
 62
     7
176
     1
 90
        6
176
     1
 90
        0
176
     1
 90
        0
176
     1
290
     0
176
     1
 90
        1
176
     1
 40
0.0
176
     1
 90
        0
176
     1
290
     0
176
     1
290
     1
176
     1
290
     1
176
     1
290
     0
176
     1
290
     0
176
     1
290
     0
176
     1
290
     0
176
     1
290
     0
176
     1
290
     0
176
     1
 90
       50
176
     1
 40
0.0
176
     1
 40
1.0
176
     1
 90
        0
176
     1
 62
   178
420
        0
176
     1
 90
       50
176
     1
 90
        3
176
     1
 62
     5
420
      255
176
     1
290
     0
176
     1
 90
       50
176
     1
 90
       50
176
     1
 90
       50
176
     1
290
     0
176
     1
 90
       50
176
     1
 62
   256
176
     0
 40
1.0
176
     0
 90
        2
176
     1
  1
strokes_ogs.tif
176
     1
290
     0
176
     1
 40
1.0
176
     1
 40
1.0
176
     1
  0
VISUALSTYLE
  5
10035
102
{ACAD_REACTORS
330
10028
102
}
330
10028
100
AcDbVisualStyle
  2
Thicken
 70
    13
177
     3
291
     1
 70
    58
 90
        2
176
     1
 90
        2
176
     1
 90
        0
176
     1
 90
        0
176
     1
 40
0.6
176
     1
 40
30.0
176
     1
 62
     7
420
 16777215
176
     1
 90
        1
176
     1
 90
        4
176
     1
 62
     7
176
     1
 62
   257
176
     1
 90
        1
176
     1
 90
        1
176
     1
 40
1.0
176
     1
 90
       12
176
     1
 62
     7
176
     1
 40
1.0
176
     1
 90
        1
176
     1
 90
        6
176
     1
 90
        2
176
     1
 62
     7
176
     1
 90
        5
176
     1
 90
        0
176
     1
 90
        0
176
     1
290
     0
176
     1
 90
        1
176
     1
 40
0.0
176
     1
 90
        0
176
     1
290
     0
176
     1
290
     1
176
     1
290
     1
176
     1
290
     0
176
     1
290
     0
176
     1
290
     0
176
     1
290
     0
176
     1
290
     0
176
     1
290
     0
176
     1
 90
       50
176
     1
 40
0.0
176
     1
 40
1.0
176
     1
 90
        0
176
     1
 62
   178
420
        0
176
     1
 90
       50
176
     1
 90
        3
176
     1
 62
     5
420
      255
176
     1
290
     0
176
     1
 90
       50
176
     1
 90
       50
176
     1
 90
       50
176
     1
290
     0
176
     1
 90
       50
176
     1
 62
   256
176
     0
 40
1.0
176
     0
 90
        2
176
     1
  1
strokes_ogs.tif
176
     1
290
     0
176
     1
 40
1.0
176
     1
 40
1.0
176
     1
  0
VISUALSTYLE
  5
1002E
102
{ACAD_REACTORS
330
10028
102
}
330
10028
100
AcDbVisualStyle
  2
Wireframe
 70
     5
177
     3
291
     0
 70
    58
 90
        0
176
     1
 90
        2
176
     1
 90
        0
176
     1
 90
        0
176
     1
 40
0.6
176
     1
 40
30.0
176
     1
 62
     7
420
 16777215
176
     1
 90
        1
176
     1
 90
        4
176
     1
 62
     7
176
     1
 62
   257
176
     1
 90
        1
176
     1
 90
        1
176
     1
 40
1.0
176
     1
 90
        0
176
     1
 62
   257
176
     1
 40
1.0
176
     1
 90
        1
176
     1
 90
        6
176
     1
 90
        2
176
     1
 62
     7
176
     1
 90
        3
176
     1
 90
        0
176
     1
 90
        0
176
     1
290
     0
176
     1
 90
        1
176
     1
 40
0.0
176
     1
 90
        0
176
     1
290
     0
176
     1
290
     1
176
     1
290
     1
176
     1
290
     0
176
     1
290
     0
176
     1
290
     0
176
     1
290
     0
176
     1
290
     0
176
     1
290
     0
176
     1
 90
       50
176
     1
 40
0.0
176
     1
 40
1.0
176
     1
 90
        0
176
     1
 62
   178
420
        0
176
     1
 90
       50
176
     1
 90
        3
176
     1
 62
     5
420
      255
176
     1
290
     0
176
     1
 90
       50
176
     1
 90
       50
176
     1
 90
       50
176
     1
290
     0
176
     1
 90
       50
176
     1
 62
   256
176
     0
 40
1.0
176
     0
 90
        2
176
     1
  1
strokes_ogs.tif
176
     1
290
     0
176
     1
 40
1.0
176
     1
 40
1.0
176
     1
  0
VISUALSTYLE
  5
1003E
102
{ACAD_REACTORS
330
10028
102
}
330
10028
100
AcDbVisualStyle
  2
X-Ray
 70
    25
177
     3
291
     0
 70
    58
 90
        2
176
     1
 90
        2
176
     1
 90
        1
176
     1
 90
        1
176
     1
 40
0.5
176
     1
 40
30.0
176
     1
 62
     7
420
 16777215
176
     1
 90
        1
176
     1
 90
        0
176
     1
 62
     7
176
     1
 62
   257
176
     1
 90
        1
176
     1
 90
        1
176
     1
 40
1.0
176
     1
 90
        8
176
     1
 62
     7
176
     1
 40
1.0
176
     1
 90
        1
176
     1
 90
        6
176
     1
 90
        2
176
     1
 62
     7
176
     1
 90
        3
176
     1
 90
        0
176
     1
 90
        0
176
     1
290
     0
176
     1
 90
       13
176
     1
 40
0.0
176
     1
 90
        0
176
     1
290
     0
176
     1
290
     1
176
     1
290
     1
176
     1
290
     0
176
     1
290
     0
176
     1
290
     0
176
     1
290
     0
176
     1
290
     0
176
     1
290
     0
176
     1
 90
       50
176
     1
 40
0.0
176
     1
 40
1.0
176
     1
 90
        0
176
     1
 62
   178
420
        0
176
     1
 90
       50
176
     1
 90
        3
176
     1
 62
     5
420
      255
176
     1
290
     0
176
     1
 90
       50
176
     1
 90
       50
176
     1
 90
       50
176
     1
290
     0
176
     1
 90
       50
176
     1
 62
   256
176
     0
 40
1.0
176
     0
 90
        2
176
     1
  1
strokes_ogs.tif
176
     1
290
     0
176
     1
 40
1.0
176
     1
 40
1.0
176
     1
  0
DICTIONARYVAR
  5
1004D
102
{ACAD_REACTORS
330
1004C
102
}
330
1004C
100
DictionaryVariables
280
     0
  1
1:1
  0
DICTIONARYVAR
  5
10052
102
{ACAD_REACTORS
330
1004C
102
}
330
1004C
100
DictionaryVariables
280
     0
  1
Standard
  0
DICTIONARYVAR
  5
10051
102
{ACAD_REACTORS
330
1004C
102
}
330
1004C
100
DictionaryVariables
280
     0
  1
Standard
  0
DICTIONARYVAR
  5
10053
102
{ACAD_REACTORS
330
1004C
102
}
330
1004C
100
DictionaryVariables
280
     0
  1
0
  0
DICTIONARY
  5
1004E
330
10046
100
AcDbDictionary
280
     1
281
     1
  3
ACAD_ROUNDTRIP_2008_TABLESTYLE_CELLSTYLEMAP
360
1004F
  0
CELLSTYLEMAP
  5
1004F
102
{ACAD_REACTORS
330
1004E
102
}
330
1004E
100
AcDbCellStyleMap
 90
        3
300
CELLSTYLE
  1
TABLEFORMAT_BEGIN
 90
        5
170
     1
 91
        0
 92
    32768
 62
   257
 93
        1
300
CONTENTFORMAT
  1
CONTENTFORMAT_BEGIN
 90
        0
 91
        0
 92
        4
 93
        0
300

 40
0.0
140
1.0
 94
        5
 62
     0
340
11
144
6.0
309
CONTENTFORMAT_END
171
     1
301
MARGIN
  1
CELLMARGIN_BEGIN
 40
1.5
 40
1.5
 40
1.5
 40
1.5
 40
1.5
 40
1.5
309
CELLMARGIN_END
 94
        6
 95
        1
302
GRIDFORMAT
  1
GRIDFORMAT_BEGIN
 90
        0
 91
        1
 62
     0
 92
       -2
340
14
 93
        0
 40
0.045
309
GRIDFORMAT_END
 95
        2
302
GRIDFORMAT
  1
GRIDFORMAT_BEGIN
 90
        0
 91
        1
 62
     0
 92
       -2
340
14
 93
        0
 40
0.045
309
GRIDFORMAT_END
 95
        4
302
GRIDFORMAT
  1
GRIDFORMAT_BEGIN
 90
        0
 91
        1
 62
     0
 92
       -2
340
14
 93
        0
 40
0.045
309
GRIDFORMAT_END
 95
        8
302
GRIDFORMAT
  1
GRIDFORMAT_BEGIN
 90
        0
 91
        1
 62
     0
 92
       -2
340
14
 93
        0
 40
0.045
309
GRIDFORMAT_END
 95
       16
302
GRIDFORMAT
  1
GRIDFORMAT_BEGIN
 90
        0
 91
        1
 62
     0
 92
       -2
340
14
 93
        0
 40
0.045
309
GRIDFORMAT_END
 95
       32
302
GRIDFORMAT
  1
GRIDFORMAT_BEGIN
 90
        0
 91
        1
 62
     0
 92
       -2
340
14
 93
        0
 40
0.045
309
GRIDFORMAT_END
309
TABLEFORMAT_END
  1
CELLSTYLE_BEGIN
 90
        1
 91
        1
300
_TITLE
309
CELLSTYLE_END
300
CELLSTYLE
  1
TABLEFORMAT_BEGIN
 90
        5
170
     1
 91
        0
 92
        0
 62
   257
 93
        1
300
CONTENTFORMAT
  1
CONTENTFORMAT_BEGIN
 90
        0
 91
        0
 92
        4
 93
        0
300

 40
0.0
140
1.0
 94
        5
 62
     0
340
11
144
4.5
309
CONTENTFORMAT_END
171
     1
301
MARGIN
  1
CELLMARGIN_BEGIN
 40
1.5
 40
1.5
 40
1.5
 40
1.5
 40
1.5
 40
1.5
309
CELLMARGIN_END
 94
        6
 95
        1
302
GRIDFORMAT
  1
GRIDFORMAT_BEGIN
 90
        0
 91
        1
 62
     0
 92
       -2
340
14
 93
        0
 40
0.045
309
GRIDFORMAT_END
 95
        2
302
GRIDFORMAT
  1
GRIDFORMAT_BEGIN
 90
        0
 91
        1
 62
     0
 92
       -2
340
14
 93
        0
 40
0.045
309
GRIDFORMAT_END
 95
        4
302
GRIDFORMAT
  1
GRIDFORMAT_BEGIN
 90
        0
 91
        1
 62
     0
 92
       -2
340
14
 93
        0
 40
0.045
309
GRIDFORMAT_END
 95
        8
302
GRIDFORMAT
  1
GRIDFORMAT_BEGIN
 90
        0
 91
        1
 62
     0
 92
       -2
340
14
 93
        0
 40
0.045
309
GRIDFORMAT_END
 95
       16
302
GRIDFORMAT
  1
GRIDFORMAT_BEGIN
 90
        0
 91
        1
 62
     0
 92
       -2
340
14
 93
        0
 40
0.045
309
GRIDFORMAT_END
 95
       32
302
GRIDFORMAT
  1
GRIDFORMAT_BEGIN
 90
        0
 91
        1
 62
     0
 92
       -2
340
14
 93
        0
 40
0.045
309
GRIDFORMAT_END
309
TABLEFORMAT_END
  1
CELLSTYLE_BEGIN
 90
        2
 91
        1
300
_HEADER
309
CELLSTYLE_END
300
CELLSTYLE
  1
TABLEFORMAT_BEGIN
 90
        5
170
     1
 91
        0
 92
        0
 62
   257
 93
        1
300
CONTENTFORMAT
  1
CONTENTFORMAT_BEGIN
 90
        0
 91
        0
 92
        4
 93
        0
300

 40
0.0
140
1.0
 94
        2
 62
     0
340
11
144
4.5
309
CONTENTFORMAT_END
171
     1
301
MARGIN
  1
CELLMARGIN_BEGIN
 40
1.5
 40
1.5
 40
1.5
 40
1.5
 40
1.5
 40
1.5
309
CELLMARGIN_END
 94
        6
 95
        1
302
GRIDFORMAT
  1
GRIDFORMAT_BEGIN
 90
        0
 91
        1
 62
     0
 92
       -2
340
14
 93
        0
 40
0.045
309
GRIDFORMAT_END
 95
        2
302
GRIDFORMAT
  1
GRIDFORMAT_BEGIN
 90
        0
 91
        1
 62
     0
 92
       -2
340
14
 93
        0
 40
0.045
309
GRIDFORMAT_END
 95
        4
302
GRIDFORMAT
  1
GRIDFORMAT_BEGIN
 90
        0
 91
        1
 62
     0
 92
       -2
340
14
 93
        0
 40
0.045
309
GRIDFORMAT_END
 95
        8
302
GRIDFORMAT
  1
GRIDFORMAT_BEGIN
 90
        0
 91
        1
 62
     0
 92
       -2
340
14
 93
        0
 40
0.045
309
GRIDFORMAT_END
 95
       16
302
GRIDFORMAT
  1
GRIDFORMAT_BEGIN
 90
        0
 91
        1
 62
     0
 92
       -2
340
14
 93
        0
 40
0.045
309
GRIDFORMAT_END
 95
       32
302
GRIDFORMAT
  1
GRIDFORMAT_BEGIN
 90
        0
 91
        1
 62
     0
 92
       -2
340
14
 93
        0
 40
0.045
309
GRIDFORMAT_END
309
TABLEFORMAT_END
  1
CELLSTYLE_BEGIN
 90
        3
 91
        2
300
_DATA
309
CELLSTYLE_END
  0
ENDSEC
  0
EOF
