  0
SECTION
  2
HEADER
  9
$ACADVER
  1
AC1014
  9
$ACADMAINTVER
 70
     9
  9
$DWGCODEPAGE
  3
ANSI_1252
  9
$INSBASE
 10
0.0
 20
0.0
 30
0.0
  9
$EXTMIN
 10
82.393105
 20
82.393106
 30
0.0
  9
$EXTMAX
 10
3110.624986
 20
3195.059036
 30
0.0
  9
$LIMMIN
 10
0.0
 20
0.0
  9
$LIMMAX
 10
12.0
 20
9.0
  9
$ORTHOMODE
 70
     0
  9
$REGENMODE
 70
     1
  9
$FILLMODE
 70
     1
  9
$QTEXTMODE
 70
     0
  9
$MIRRTEXT
 70
     1
  9
$DRAGMODE
 70
     2
  9
$LTSCALE
 40
1.0
  9
$OSMODE
 70
   511
  9
$ATTMODE
 70
     1
  9
$TEXTSIZE
 40
2.5
  9
$TRACEWID
 40
0.05
  9
$TEXTSTYLE
  7
STANDARD
  9
$CLAYER
  8
0
  9
$CELTYPE
  6
BYBLOCK
  9
$CECOLOR
 62
   256
  9
$CELTSCALE
 40
1.0
  9
$DELOBJ
 70
     1
  9
$DISPSILH
 70
     0
  9
$DIMSCALE
 40
1.0
  9
$DIMASZ
 40
0.18
  9
$DIMEXO
 40
0.0625
  9
$DIMDLI
 40
0.38
  9
$DIMRND
 40
0.0
  9
$DIMDLE
 40
0.0
  9
$DIMEXE
 40
0.18
  9
$DIMTP
 40
0.0
  9
$DIMTM
 40
0.0
  9
$DIMTXT
 40
0.18
  9
$DIMCEN
 40
0.09
  9
$DIMTSZ
 40
0.0
  9
$DIMTOL
 70
     0
  9
$DIMLIM
 70
     0
  9
$DIMTIH
 70
     1
  9
$DIMTOH
 70
     1
  9
$DIMSE1
 70
     0
  9
$DIMSE2
 70
     0
  9
$DIMTAD
 70
     0
  9
$DIMZIN
 70
     0
  9
$DIMBLK
  1

  9
$DIMASO
 70
     1
  9
$DIMSHO
 70
     1
  9
$DIMPOST
  1

  9
$DIMAPOST
  1

  9
$DIMALT
 70
     0
  9
$DIMALTD
 70
     2
  9
$DIMALTF
 40
25.4
  9
$DIMLFAC
 40
1.0
  9
$DIMTOFL
 70
     0
  9
$DIMTVP
 40
0.0
  9
$DIMTIX
 70
     0
  9
$DIMSOXD
 70
     0
  9
$DIMSAH
 70
     0
  9
$DIMBLK1
  1

  9
$DIMBLK2
  1

  9
$DIMSTYLE
  2
ISO-25
  9
$DIMCLRD
 70
     0
  9
$DIMCLRE
 70
     0
  9
$DIMCLRT
 70
     0
  9
$DIMTFAC
 40
1.0
  9
$DIMGAP
 40
0.09
  9
$DIMJUST
 70
     0
  9
$DIMSD1
 70
     0
  9
$DIMSD2
 70
     0
  9
$DIMTOLJ
 70
     1
  9
$DIMTZIN
 70
     0
  9
$DIMALTZ
 70
     0
  9
$DIMALTTZ
 70
     0
  9
$DIMFIT
 70
     5
  9
$DIMUPT
 70
     0
  9
$DIMUNIT
 70
     2
  9
$DIMDEC
 70
     4
  9
$DIMTDEC
 70
     4
  9
$DIMALTU
 70
     2
  9
$DIMALTTD
 70
     2
  9
$DIMTXSTY
  7
STANDARD
  9
$DIMAUNIT
 70
     0
  9
$LUNITS
 70
     2
  9
$LUPREC
 70
     4
  9
$SKETCHINC
 40
0.1
  9
$FILLETRAD
 40
0.5
  9
$AUNITS
 70
     0
  9
$AUPREC
 70
     0
  9
$MENU
  1
.
  9
$ELEVATION
 40
0.0
  9
$PELEVATION
 40
0.0
  9
$THICKNESS
 40
0.0
  9
$LIMCHECK
 70
     0
  9
$CHAMFERA
 40
0.0
  9
$CHAMFERB
 40
0.0
  9
$CHAMFERC
 40
0.0
  9
$CHAMFERD
 40
0.0
  9
$SKPOLY
 70
     0
  9
$TDCREATE
 40
0.0
  9
$TDUPDATE
 40
2458065.647095209
  9
$TDINDWG
 40
0.0000000694
  9
$TDUSRTIMER
 40
2458065.855127778
  9
$USRTIMER
 70
     1
  9
$ANGBASE
 50
0.0
  9
$ANGDIR
 70
     0
  9
$PDMODE
 70
     0
  9
$PDSIZE
 40
0.0
  9
$PLINEWID
 40
0.0
  9
$COORDS
 70
     1
  9
$SPLFRAME
 70
     0
  9
$SPLINETYPE
 70
     6
  9
$SPLINESEGS
 70
     8
  9
$ATTDIA
 70
     0
  9
$ATTREQ
 70
     1
  9
$HANDLING
 70
     1
  9
$HANDSEED
  5
1004D
  9
$SURFTAB1
 70
     6
  9
$SURFTAB2
 70
     6
  9
$SURFTYPE
 70
     6
  9
$SURFU
 70
     6
  9
$SURFV
 70
     6
  9
$UCSNAME
  2

  9
$UCSORG
 10
0.0
 20
0.0
 30
0.0
  9
$UCSXDIR
 10
1.0
 20
0.0
 30
0.0
  9
$UCSYDIR
 10
0.0
 20
1.0
 30
0.0
  9
$PUCSNAME
  2

  9
$PUCSORG
 10
0.0
 20
0.0
 30
0.0
  9
$PUCSXDIR
 10
1.0
 20
0.0
 30
0.0
  9
$PUCSYDIR
 10
0.0
 20
1.0
 30
0.0
  9
$USERI1
 70
     0
  9
$USERI2
 70
     0
  9
$USERI3
 70
     0
  9
$USERI4
 70
     0
  9
$USERI5
 70
     0
  9
$USERR1
 40
0.0
  9
$USERR2
 40
0.0
  9
$USERR3
 40
0.0
  9
$USERR4
 40
0.0
  9
$USERR5
 40
0.0
  9
$WORLDVIEW
 70
     1
  9
$SHADEDGE
 70
     3
  9
$SHADEDIF
 70
    70
  9
$TILEMODE
 70
     1
  9
$MAXACTVP
 70
    64
  9
$PINSBASE
 10
0.0
 20
0.0
 30
0.0
  9
$PLIMCHECK
 70
     0
  9
$PEXTMIN
 10
1.000000000000000E+20
 20
1.000000000000000E+20
 30
1.000000000000000E+20
  9
$PEXTMAX
 10
-1.000000000000000E+20
 20
-1.000000000000000E+20
 30
-1.000000000000000E+20
  9
$PLIMMIN
 10
0.0
 20
0.0
  9
$PLIMMAX
 10
0.0
 20
0.0
  9
$UNITMODE
 70
     0
  9
$VISRETAIN
 70
     1
  9
$PLINEGEN
 70
     0
  9
$PSLTSCALE
 70
     1
  9
$TREEDEPTH
 70
  3020
  9
$PICKSTYLE
 70
     1
  9
$CMLSTYLE
  2
STANDARD
  9
$CMLJUST
 70
     0
  9
$CMLSCALE
 40
1.0
  9
$PROXYGRAPHICS
 70
     1
  9
$MEASUREMENT
 70
     1
  0
ENDSEC
  0
SECTION
  2
CLASSES
  0
CLASS
  1
ACDBDICTIONARYWDFLT
  2
AcDbDictionaryWithDefault
  3
ObjectDBX Classes
 90
        0
280
     0
281
     0
  0
CLASS
  1
SCALE
  2
AcDbScale
  3
ObjectDBX Classes
 90
     1153
280
     0
281
     0
  0
CLASS
  1
VISUALSTYLE
  2
AcDbVisualStyle
  3
ObjectDBX Classes
 90
     4095
280
     0
281
     0
  0
CLASS
  1
MATERIAL
  2
AcDbMaterial
  3
ObjectDBX Classes
 90
     1153
280
     0
281
     0
  0
CLASS
  1
TABLESTYLE
  2
AcDbTableStyle
  3
ObjectDBX Classes
 90
     4095
280
     0
281
     0
  0
CLASS
  1
MLEADERSTYLE
  2
AcDbMLeaderStyle
  3
ACDB_MLEADERSTYLE_CLASS
 90
     4095
280
     0
281
     0
  0
CLASS
  1
SUN
  2
AcDbSun
  3
SCENEOE
 90
     1153
280
     0
281
     0
  0
CLASS
  1
RASTERVARIABLES
  2
AcDbRasterVariables
  3
ISM
 90
        0
280
     0
281
     0
  0
CLASS
  1
XRECORD
  2
AcDbXrecord
  3
ObjectDBX Classes
 90
        0
280
     0
281
     0
  0
CLASS
  1
LWPOLYLINE
  2
AcDbPolyline
  3
ObjectDBX Classes
 90
        0
280
     0
281
     1
  0
CLASS
  1
HATCH
  2
AcDbHatch
  3
ObjectDBX Classes
 90
        0
280
     0
281
     1
  0
ENDSEC
  0
SECTION
  2
TABLES
  0
TABLE
  2
VPORT
  5
8
330
0
100
AcDbSymbolTable
 70
     1
  0
VPORT
  5
2E
330
8
100
AcDbSymbolTableRecord
100
AcDbViewportTableRecord
  2
*ACTIVE
 70
     0
 10
0.0
 20
0.0
 11
1.0
 21
1.0
 12
1134.093320242776
 22
1067.092764765141
 13
0.0
 23
0.0
 14
10.0
 24
10.0
 15
10.0
 25
10.0
 16
0.0
 26
0.0
 36
1.0
 17
0.0
 27
0.0
 37
0.0
 40
5656.985778303641
 41
1.997347480106101
 42
50.0
 43
0.0
 44
0.0
 50
0.0
 51
0.0
 71
    16
 72
   100
 73
     1
 74
     3
 75
     0
 76
     0
 77
     0
 78
     0
  0
ENDTAB
  0
TABLE
  2
LTYPE
  5
5
330
0
100
AcDbSymbolTable
 70
     1
  0
LTYPE
  5
14
330
5
100
AcDbSymbolTableRecord
100
AcDbLinetypeTableRecord
  2
BYBLOCK
 70
     0
  3

 72
    65
 73
     0
 40
0.0
  0
LTYPE
  5
15
330
5
100
AcDbSymbolTableRecord
100
AcDbLinetypeTableRecord
  2
BYLAYER
 70
     0
  3

 72
    65
 73
     0
 40
0.0
  0
LTYPE
  5
16
330
5
100
AcDbSymbolTableRecord
100
AcDbLinetypeTableRecord
  2
CONTINUOUS
 70
     0
  3
Solid line
 72
    65
 73
     0
 40
0.0
  0
ENDTAB
  0
TABLE
  2
LAYER
  5
2
330
0
100
AcDbSymbolTable
 70
     1
  0
LAYER
  5
50
330
2
100
AcDbSymbolTableRecord
100
AcDbLayerTableRecord
  2
0
 70
     0
 62
     7
  6
CONTINUOUS
  0
ENDTAB
  0
TABLE
  2
STYLE
  5
3
330
0
100
AcDbSymbolTable
 70
     1
  0
STYLE
  5
11
330
3
100
AcDbSymbolTableRecord
100
AcDbTextStyleTableRecord
  2
STANDARD
 70
     0
 40
0.0
 41
1.0
 50
0.0
 71
     0
 42
2.5
  3
txt
  4

  0
ENDTAB
  0
TABLE
  2
VIEW
  5
6
330
0
100
AcDbSymbolTable
 70
     0
  0
ENDTAB
  0
TABLE
  2
UCS
  5
7
330
0
100
AcDbSymbolTable
 70
     0
  0
ENDTAB
  0
TABLE
  2
APPID
  5
9
330
0
100
AcDbSymbolTable
 70
     1
  0
APPID
  5
12
330
9
100
AcDbSymbolTableRecord
100
AcDbRegAppTableRecord
  2
ACAD
 70
     0
  0
ENDTAB
  0
TABLE
  2
DIMSTYLE
  5
A
330
0
100
AcDbSymbolTable
 70
     1
  0
DIMSTYLE
105
27
330
A
100
AcDbSymbolTableRecord
100
AcDbDimStyleTableRecord
  2
ISO-25
 70
     0
  3

  4

  5

  6

  7

 40
1.0
 41
2.5
 42
0.625
 43
3.75
 44
1.25
 45
0.0
 46
0.0
 47
0.0
 48
0.0
140
2.5
141
2.5
142
0.0
143
0.03937007874016
144
1.0
145
0.0
146
1.0
147
0.625
 71
     0
 72
     0
 73
     0
 74
     0
 75
     0
 76
     0
 77
     1
 78
     8
170
     0
171
     3
172
     1
173
     0
174
     0
175
     0
176
     0
177
     0
178
     0
270
     2
271
     2
272
     2
273
     2
274
     3
340
11
275
     0
280
     0
281
     0
282
     0
283
     0
284
     8
285
     0
286
     0
287
     3
288
     0
  0
ENDTAB
  0
TABLE
  2
BLOCK_RECORD
  5
1
330
0
100
AcDbSymbolTable
 70
     0
  0
BLOCK_RECORD
  5
1F
330
1
100
AcDbSymbolTableRecord
100
AcDbBlockTableRecord
  2
*MODEL_SPACE
  0
BLOCK_RECORD
  5
1B
330
1
100
AcDbSymbolTableRecord
100
AcDbBlockTableRecord
  2
*PAPER_SPACE
  0
ENDTAB
  0
ENDSEC
  0
SECTION
  2
BLOCKS
  0
BLOCK
  5
20
330
1F
100
AcDbEntity
  8
0
100
AcDbBlockBegin
  2
*MODEL_SPACE
 70
     0
 10
0.0
 20
0.0
 30
0.0
  3
*MODEL_SPACE
  1

  0
ENDBLK
  5
21
330
1F
100
AcDbEntity
  8
0
100
AcDbBlockEnd
  0
BLOCK
  5
1C
330
1B
100
AcDbEntity
 67
     1
  8
0
100
AcDbBlockBegin
  2
*PAPER_SPACE
 70
     0
 10
0.0
 20
0.0
 30
0.0
  3
*PAPER_SPACE
  1

  0
ENDBLK
  5
1D
330
1B
100
AcDbEntity
 67
     1
  8
0
100
AcDbBlockEnd
  0
ENDSEC
  0
SECTION
  2
ENTITIES
  0
LWPOLYLINE
  5
100
330
1F
100
AcDbEntity
  8
0
 62
     7
100
AcDbPolyline
 90
        2
 70
     0
 43
0.0
 10
983.205109
 20
82.393106
 10
1078.580033
 20
82.393106
  0
LWPOLYLINE
  5
101
330
1F
100
AcDbEntity
  8
0
 62
     7
100
AcDbPolyline
 90
        2
 70
     0
 43
0.0
 10
1078.580033
 20
117.497357
 10
1078.580033
 20
82.393106
  0
LWPOLYLINE
  5
102
330
1F
100
AcDbEntity
  8
0
 62
     7
100
AcDbPolyline
 90
        4
 70
     0
 43
0.0
 10
1078.580033
 20
117.497357
 10
1170.89354
 20
117.497357
 10
1170.89354
 20
82.393106
 10
1267.288937
 20
82.393106
  0
LWPOLYLINE
  5
103
330
1F
100
AcDbEntity
  8
0
 62
     7
100
AcDbPolyline
 90
        2
 70
     0
 43
0.0
 10
1267.288937
 20
117.497357
 10
1267.288937
 20
82.393106
  0
LWPOLYLINE
  5
104
330
1F
100
AcDbEntity
  8
0
 62
     7
100
AcDbPolyline
 90
        4
 70
     0
 43
0.0
 10
1267.288937
 20
117.497357
 10
1359.602443
 20
117.497357
 10
1359.602443
 20
82.393106
 10
1455.99784
 20
82.393106
  0
LWPOLYLINE
  5
105
330
1F
100
AcDbEntity
  8
0
 62
     7
100
AcDbPolyline
 90
        2
 70
     0
 43
0.0
 10
1455.99784
 20
117.497357
 10
1455.99784
 20
82.393106
  0
LWPOLYLINE
  5
106
330
1F
100
AcDbEntity
  8
0
 62
     7
100
AcDbPolyline
 90
        4
 70
     0
 43
0.0
 10
1455.99784
 20
117.497357
 10
1548.311348
 20
117.497357
 10
1548.311348
 20
82.393106
 10
1644.706744
 20
82.393106
  0
LWPOLYLINE
  5
107
330
1F
100
AcDbEntity
  8
0
 62
     7
100
AcDbPolyline
 90
        2
 70
     0
 43
0.0
 10
1644.706744
 20
117.497357
 10
1644.706744
 20
82.393106
  0
LWPOLYLINE
  5
108
330
1F
100
AcDbEntity
  8
0
 62
     7
100
AcDbPolyline
 90
        4
 70
     0
 43
0.0
 10
1644.706744
 20
117.497357
 10
1737.020251
 20
117.497357
 10
1737.020251
 20
82.393106
 10
1833.415648
 20
82.393106
  0
LWPOLYLINE
  5
109
330
1F
100
AcDbEntity
  8
0
 62
     7
100
AcDbPolyline
 90
        2
 70
     0
 43
0.0
 10
1833.415648
 20
117.497357
 10
1833.415648
 20
82.393106
  0
LWPOLYLINE
  5
10A
330
1F
100
AcDbEntity
  8
0
 62
     7
100
AcDbPolyline
 90
        4
 70
     0
 43
0.0
 10
1833.415648
 20
117.497357
 10
1925.729155
 20
117.497357
 10
1925.729155
 20
82.393106
 10
2022.124552
 20
82.393106
  0
LWPOLYLINE
  5
10B
330
1F
100
AcDbEntity
  8
0
 62
     7
100
AcDbPolyline
 90
        2
 70
     0
 43
0.0
 10
2022.124552
 20
117.497357
 10
2022.124552
 20
82.393106
  0
LWPOLYLINE
  5
10C
330
1F
100
AcDbEntity
  8
0
 62
     7
100
AcDbPolyline
 90
        4
 70
     0
 43
0.0
 10
2022.124552
 20
117.497357
 10
2114.438059
 20
117.497357
 10
2114.438059
 20
82.393106
 10
2174.708731
 20
82.393106
  0
LWPOLYLINE
  5
10D
330
1F
100
AcDbEntity
  8
0
 62
     7
100
AcDbPolyline
 90
        4
 70
     0
 43
0.0
 10
983.205109
 20
696.717515
 10
1078.580033
 20
696.717515
 10
1078.580033
 20
661.613263
 10
1170.89354
 20
661.613263
  0
LWPOLYLINE
  5
10E
330
1F
100
AcDbEntity
  8
0
 62
     7
100
AcDbPolyline
 90
        2
 70
     0
 43
0.0
 10
1170.89354
 20
696.717515
 10
1170.89354
 20
661.613263
  0
LWPOLYLINE
  5
10F
330
1F
100
AcDbEntity
  8
0
 62
     7
100
AcDbPolyline
 90
        4
 70
     0
 43
0.0
 10
1170.89354
 20
696.717515
 10
1267.288937
 20
696.717515
 10
1267.288937
 20
661.613263
 10
1359.602443
 20
661.613263
  0
LWPOLYLINE
  5
110
330
1F
100
AcDbEntity
  8
0
 62
     7
100
AcDbPolyline
 90
        2
 70
     0
 43
0.0
 10
1359.602443
 20
696.717515
 10
1359.602443
 20
661.613263
  0
LWPOLYLINE
  5
111
330
1F
100
AcDbEntity
  8
0
 62
     7
100
AcDbPolyline
 90
        4
 70
     0
 43
0.0
 10
1359.602443
 20
696.717515
 10
1455.99784
 20
696.717515
 10
1455.99784
 20
661.613263
 10
1548.311348
 20
661.613263
  0
LWPOLYLINE
  5
112
330
1F
100
AcDbEntity
  8
0
 62
     7
100
AcDbPolyline
 90
        2
 70
     0
 43
0.0
 10
1548.311348
 20
696.717515
 10
1548.311348
 20
661.613263
  0
LWPOLYLINE
  5
113
330
1F
100
AcDbEntity
  8
0
 62
     7
100
AcDbPolyline
 90
        4
 70
     0
 43
0.0
 10
1548.311348
 20
696.717515
 10
1644.706744
 20
696.717515
 10
1644.706744
 20
661.613263
 10
1737.020251
 20
661.613263
  0
LWPOLYLINE
  5
114
330
1F
100
AcDbEntity
  8
0
 62
     7
100
AcDbPolyline
 90
        2
 70
     0
 43
0.0
 10
1737.020251
 20
696.717515
 10
1737.020251
 20
661.613263
  0
LWPOLYLINE
  5
115
330
1F
100
AcDbEntity
  8
0
 62
     7
100
AcDbPolyline
 90
        4
 70
     0
 43
0.0
 10
1737.020251
 20
696.717515
 10
1833.415648
 20
696.717515
 10
1833.415648
 20
661.613263
 10
1925.729155
 20
661.613263
  0
LWPOLYLINE
  5
116
330
1F
100
AcDbEntity
  8
0
 62
     7
100
AcDbPolyline
 90
        2
 70
     0
 43
0.0
 10
1925.729155
 20
696.717515
 10
1925.729155
 20
661.613263
  0
LWPOLYLINE
  5
117
330
1F
100
AcDbEntity
  8
0
 62
     7
100
AcDbPolyline
 90
        4
 70
     0
 43
0.0
 10
1925.729155
 20
696.717515
 10
2022.124552
 20
696.717515
 10
2022.124552
 20
661.613263
 10
2114.438059
 20
661.613263
  0
LWPOLYLINE
  5
118
330
1F
100
AcDbEntity
  8
0
 62
     7
100
AcDbPolyline
 90
        2
 70
     0
 43
0.0
 10
2114.438059
 20
696.717515
 10
2114.438059
 20
661.613263
  0
LWPOLYLINE
  5
119
330
1F
100
AcDbEntity
  8
0
 62
     7
100
AcDbPolyline
 90
        2
 70
     0
 43
0.0
 10
2114.438059
 20
696.717515
 10
2174.708731
 20
696.717515
  0
LWPOLYLINE
  5
11A
330
1F
100
AcDbEntity
  8
0
 62
     7
100
AcDbPolyline
 90
        2
 70
     0
 43
0.0
 10
983.205109
 20
82.393106
 10
983.205109
 20
169.133263
  0
LWPOLYLINE
  5
11B
330
1F
100
AcDbEntity
  8
0
 62
     7
100
AcDbPolyline
 90
        2
 70
     0
 43
0.0
 10
1018.309361
 20
169.133263
 10
983.205109
 20
169.133263
  0
LWPOLYLINE
  5
11C
330
1F
100
AcDbEntity
  8
0
 62
     7
100
AcDbPolyline
 90
        4
 70
     0
 43
0.0
 10
1018.309361
 20
169.133263
 10
1018.309361
 20
258.934838
 10
983.205109
 20
258.934838
 10
983.205109
 20
344.654523
  0
LWPOLYLINE
  5
11D
330
1F
100
AcDbEntity
  8
0
 62
     7
100
AcDbPolyline
 90
        2
 70
     0
 43
0.0
 10
1018.309361
 20
344.654523
 10
983.205109
 20
344.654523
  0
LWPOLYLINE
  5
11E
330
1F
100
AcDbEntity
  8
0
 62
     7
100
AcDbPolyline
 90
        4
 70
     0
 43
0.0
 10
1018.309361
 20
344.654523
 10
1018.309361
 20
434.456098
 10
983.205109
 20
434.456098
 10
983.205109
 20
520.175783
  0
LWPOLYLINE
  5
11F
330
1F
100
AcDbEntity
  8
0
 62
     7
100
AcDbPolyline
 90
        2
 70
     0
 43
0.0
 10
1018.309361
 20
520.175783
 10
983.205109
 20
520.175783
  0
LWPOLYLINE
  5
120
330
1F
100
AcDbEntity
  8
0
 62
     7
100
AcDbPolyline
 90
        4
 70
     0
 43
0.0
 10
1018.309361
 20
520.175783
 10
1018.309361
 20
609.977357
 10
983.205109
 20
609.977357
 10
983.205109
 20
696.717515
  0
LWPOLYLINE
  5
121
330
1F
100
AcDbEntity
  8
0
 62
     7
100
AcDbPolyline
 90
        2
 70
     0
 43
0.0
 10
2174.708731
 20
82.393106
 10
2174.708731
 20
169.133263
  0
LWPOLYLINE
  5
122
330
1F
100
AcDbEntity
  8
0
 62
     7
100
AcDbPolyline
 90
        2
 70
     0
 43
0.0
 10
2209.812982
 20
169.133263
 10
2174.708731
 20
169.133263
  0
LWPOLYLINE
  5
123
330
1F
100
AcDbEntity
  8
0
 62
     7
100
AcDbPolyline
 90
        4
 70
     0
 43
0.0
 10
2209.812982
 20
169.133263
 10
2209.812982
 20
258.934838
 10
2174.708731
 20
258.934838
 10
2174.708731
 20
344.654523
  0
LWPOLYLINE
  5
124
330
1F
100
AcDbEntity
  8
0
 62
     7
100
AcDbPolyline
 90
        2
 70
     0
 43
0.0
 10
2209.812982
 20
344.654523
 10
2174.708731
 20
344.654523
  0
LWPOLYLINE
  5
125
330
1F
100
AcDbEntity
  8
0
 62
     7
100
AcDbPolyline
 90
        4
 70
     0
 43
0.0
 10
2209.812982
 20
344.654523
 10
2209.812982
 20
434.456098
 10
2174.708731
 20
434.456098
 10
2174.708731
 20
520.175783
  0
LWPOLYLINE
  5
126
330
1F
100
AcDbEntity
  8
0
 62
     7
100
AcDbPolyline
 90
        2
 70
     0
 43
0.0
 10
2209.812982
 20
520.175783
 10
2174.708731
 20
520.175783
  0
LWPOLYLINE
  5
127
330
1F
100
AcDbEntity
  8
0
 62
     7
100
AcDbPolyline
 90
        4
 70
     0
 43
0.0
 10
2209.812982
 20
520.175783
 10
2209.812982
 20
609.977357
 10
2174.708731
 20
609.977357
 10
2174.708731
 20
696.717515
  0
LWPOLYLINE
  5
128
330
1F
100
AcDbEntity
  8
0
 62
     7
100
AcDbPolyline
 90
        2
 70
     0
 43
0.0
 10
82.393105
 20
779.110621
 10
174.349011
 20
779.110621
  0
LWPOLYLINE
  5
129
330
1F
100
AcDbEntity
  8
0
 62
     7
100
AcDbPolyline
 90
        2
 70
     0
 43
0.0
 10
174.349011
 20
814.214873
 10
174.349011
 20
779.110621
  0
LWPOLYLINE
  5
12A
330
1F
100
AcDbEntity
  8
0
 62
     7
100
AcDbPolyline
 90
        4
 70
     0
 43
0.0
 10
174.349011
 20
814.214873
 10
263.243499
 20
814.214873
 10
263.243499
 20
779.110621
 10
356.219877
 20
779.110621
  0
LWPOLYLINE
  5
12B
330
1F
100
AcDbEntity
  8
0
 62
     7
100
AcDbPolyline
 90
        2
 70
     0
 43
0.0
 10
356.219877
 20
814.214873
 10
356.219877
 20
779.110621
  0
LWPOLYLINE
  5
12C
330
1F
100
AcDbEntity
  8
0
 62
     7
100
AcDbPolyline
 90
        4
 70
     0
 43
0.0
 10
356.219877
 20
814.214873
 10
445.114366
 20
814.214873
 10
445.114366
 20
779.110621
 10
538.090744
 20
779.110621
  0
LWPOLYLINE
  5
12D
330
1F
100
AcDbEntity
  8
0
 62
     7
100
AcDbPolyline
 90
        2
 70
     0
 43
0.0
 10
538.090744
 20
814.214873
 10
538.090744
 20
779.110621
  0
LWPOLYLINE
  5
12E
330
1F
100
AcDbEntity
  8
0
 62
     7
100
AcDbPolyline
 90
        4
 70
     0
 43
0.0
 10
538.090744
 20
814.214873
 10
626.985232
 20
814.214873
 10
626.985232
 20
779.110621
 10
719.96161
 20
779.110621
  0
LWPOLYLINE
  5
12F
330
1F
100
AcDbEntity
  8
0
 62
     7
100
AcDbPolyline
 90
        2
 70
     0
 43
0.0
 10
719.96161
 20
814.214873
 10
719.96161
 20
779.110621
  0
LWPOLYLINE
  5
130
330
1F
100
AcDbEntity
  8
0
 62
     7
100
AcDbPolyline
 90
        4
 70
     0
 43
0.0
 10
719.96161
 20
814.214873
 10
808.856098
 20
814.214873
 10
808.856098
 20
779.110621
 10
865.707752
 20
779.110621
  0
LWPOLYLINE
  5
131
330
1F
100
AcDbEntity
  8
0
 62
     7
100
AcDbPolyline
 90
        4
 70
     0
 43
0.0
 10
82.393105
 20
1393.43503
 10
174.349011
 20
1393.43503
 10
174.349011
 20
1358.330778
 10
263.243499
 20
1358.330778
  0
LWPOLYLINE
  5
132
330
1F
100
AcDbEntity
  8
0
 62
     7
100
AcDbPolyline
 90
        2
 70
     0
 43
0.0
 10
263.243499
 20
1393.43503
 10
263.243499
 20
1358.330778
  0
LWPOLYLINE
  5
133
330
1F
100
AcDbEntity
  8
0
 62
     7
100
AcDbPolyline
 90
        4
 70
     0
 43
0.0
 10
263.243499
 20
1393.43503
 10
356.219877
 20
1393.43503
 10
356.219877
 20
1358.330778
 10
445.114366
 20
1358.330778
  0
LWPOLYLINE
  5
134
330
1F
100
AcDbEntity
  8
0
 62
     7
100
AcDbPolyline
 90
        2
 70
     0
 43
0.0
 10
445.114366
 20
1393.43503
 10
445.114366
 20
1358.330778
  0
LWPOLYLINE
  5
135
330
1F
100
AcDbEntity
  8
0
 62
     7
100
AcDbPolyline
 90
        4
 70
     0
 43
0.0
 10
445.114366
 20
1393.43503
 10
538.090744
 20
1393.43503
 10
538.090744
 20
1358.330778
 10
626.985232
 20
1358.330778
  0
LWPOLYLINE
  5
136
330
1F
100
AcDbEntity
  8
0
 62
     7
100
AcDbPolyline
 90
        2
 70
     0
 43
0.0
 10
626.985232
 20
1393.43503
 10
626.985232
 20
1358.330778
  0
LWPOLYLINE
  5
137
330
1F
100
AcDbEntity
  8
0
 62
     7
100
AcDbPolyline
 90
        4
 70
     0
 43
0.0
 10
626.985232
 20
1393.43503
 10
719.96161
 20
1393.43503
 10
719.96161
 20
1358.330778
 10
808.856098
 20
1358.330778
  0
LWPOLYLINE
  5
138
330
1F
100
AcDbEntity
  8
0
 62
     7
100
AcDbPolyline
 90
        2
 70
     0
 43
0.0
 10
808.856098
 20
1393.43503
 10
808.856098
 20
1358.330778
  0
LWPOLYLINE
  5
139
330
1F
100
AcDbEntity
  8
0
 62
     7
100
AcDbPolyline
 90
        2
 70
     0
 43
0.0
 10
808.856098
 20
1393.43503
 10
865.707752
 20
1393.43503
  0
LWPOLYLINE
  5
13A
330
1F
100
AcDbEntity
  8
0
 62
     7
100
AcDbPolyline
 90
        2
 70
     0
 43
0.0
 10
82.393105
 20
779.110621
 10
82.393105
 20
867.891723
  0
LWPOLYLINE
  5
13B
330
1F
100
AcDbEntity
  8
0
 62
     7
100
AcDbPolyline
 90
        2
 70
     0
 43
0.0
 10
117.497357
 20
867.891723
 10
82.393105
 20
867.891723
  0
LWPOLYLINE
  5
13C
330
1F
100
AcDbEntity
  8
0
 62
     7
100
AcDbPolyline
 90
        4
 70
     0
 43
0.0
 10
117.497357
 20
867.891723
 10
117.497357
 20
953.611408
 10
82.393105
 20
953.611408
 10
82.393105
 20
1043.412983
  0
LWPOLYLINE
  5
13D
330
1F
100
AcDbEntity
  8
0
 62
     7
100
AcDbPolyline
 90
        2
 70
     0
 43
0.0
 10
117.497357
 20
1043.412983
 10
82.393105
 20
1043.412983
  0
LWPOLYLINE
  5
13E
330
1F
100
AcDbEntity
  8
0
 62
     7
100
AcDbPolyline
 90
        4
 70
     0
 43
0.0
 10
117.497357
 20
1043.412983
 10
117.497357
 20
1129.132668
 10
82.393105
 20
1129.132668
 10
82.393105
 20
1218.934243
  0
LWPOLYLINE
  5
13F
330
1F
100
AcDbEntity
  8
0
 62
     7
100
AcDbPolyline
 90
        2
 70
     0
 43
0.0
 10
117.497357
 20
1218.934243
 10
82.393105
 20
1218.934243
  0
LWPOLYLINE
  5
140
330
1F
100
AcDbEntity
  8
0
 62
     7
100
AcDbPolyline
 90
        4
 70
     0
 43
0.0
 10
117.497357
 20
1218.934243
 10
117.497357
 20
1304.653928
 10
82.393105
 20
1304.653928
 10
82.393105
 20
1393.43503
  0
LWPOLYLINE
  5
141
330
1F
100
AcDbEntity
  8
0
 62
     7
100
AcDbPolyline
 90
        2
 70
     0
 43
0.0
 10
865.707752
 20
779.110621
 10
865.707752
 20
865.850778
  0
LWPOLYLINE
  5
142
330
1F
100
AcDbEntity
  8
0
 62
     7
100
AcDbPolyline
 90
        2
 70
     0
 43
0.0
 10
900.812003
 20
865.850778
 10
865.707752
 20
865.850778
  0
LWPOLYLINE
  5
143
330
1F
100
AcDbEntity
  8
0
 62
     7
100
AcDbPolyline
 90
        4
 70
     0
 43
0.0
 10
900.812003
 20
865.850778
 10
900.812003
 20
955.652353
 10
865.707752
 20
955.652353
 10
865.707752
 20
1041.372038
  0
LWPOLYLINE
  5
144
330
1F
100
AcDbEntity
  8
0
 62
     7
100
AcDbPolyline
 90
        2
 70
     0
 43
0.0
 10
900.812003
 20
1041.372038
 10
865.707752
 20
1041.372038
  0
LWPOLYLINE
  5
145
330
1F
100
AcDbEntity
  8
0
 62
     7
100
AcDbPolyline
 90
        4
 70
     0
 43
0.0
 10
900.812003
 20
1041.372038
 10
900.812003
 20
1131.173613
 10
865.707752
 20
1131.173613
 10
865.707752
 20
1216.893298
  0
LWPOLYLINE
  5
146
330
1F
100
AcDbEntity
  8
0
 62
     7
100
AcDbPolyline
 90
        2
 70
     0
 43
0.0
 10
900.812003
 20
1216.893298
 10
865.707752
 20
1216.893298
  0
LWPOLYLINE
  5
147
330
1F
100
AcDbEntity
  8
0
 62
     7
100
AcDbPolyline
 90
        4
 70
     0
 43
0.0
 10
900.812003
 20
1216.893298
 10
900.812003
 20
1306.694873
 10
865.707752
 20
1306.694873
 10
865.707752
 20
1393.43503
  0
LWPOLYLINE
  5
148
330
1F
100
AcDbEntity
  8
0
 62
     7
100
AcDbPolyline
 90
        4
 70
     0
 43
0.0
 10
1018.309361
 20
814.214873
 10
1076.539088
 20
814.214873
 10
1076.539088
 20
779.110621
 10
1172.934485
 20
779.110621
  0
LWPOLYLINE
  5
149
330
1F
100
AcDbEntity
  8
0
 62
     7
100
AcDbPolyline
 90
        2
 70
     0
 43
0.0
 10
1172.934485
 20
814.214873
 10
1172.934485
 20
779.110621
  0
LWPOLYLINE
  5
14A
330
1F
100
AcDbEntity
  8
0
 62
     7
100
AcDbPolyline
 90
        4
 70
     0
 43
0.0
 10
1172.934485
 20
814.214873
 10
1265.247992
 20
814.214873
 10
1265.247992
 20
779.110621
 10
1361.643388
 20
779.110621
  0
LWPOLYLINE
  5
14B
330
1F
100
AcDbEntity
  8
0
 62
     7
100
AcDbPolyline
 90
        2
 70
     0
 43
0.0
 10
1361.643388
 20
814.214873
 10
1361.643388
 20
779.110621
  0
LWPOLYLINE
  5
14C
330
1F
100
AcDbEntity
  8
0
 62
     7
100
AcDbPolyline
 90
        4
 70
     0
 43
0.0
 10
1361.643388
 20
814.214873
 10
1453.956895
 20
814.214873
 10
1453.956895
 20
779.110621
 10
1550.352293
 20
779.110621
  0
LWPOLYLINE
  5
14D
330
1F
100
AcDbEntity
  8
0
 62
     7
100
AcDbPolyline
 90
        2
 70
     0
 43
0.0
 10
1550.352293
 20
814.214873
 10
1550.352293
 20
779.110621
  0
LWPOLYLINE
  5
14E
330
1F
100
AcDbEntity
  8
0
 62
     7
100
AcDbPolyline
 90
        4
 70
     0
 43
0.0
 10
1550.352293
 20
814.214873
 10
1642.6658
 20
814.214873
 10
1642.6658
 20
779.110621
 10
1739.061196
 20
779.110621
  0
LWPOLYLINE
  5
14F
330
1F
100
AcDbEntity
  8
0
 62
     7
100
AcDbPolyline
 90
        2
 70
     0
 43
0.0
 10
1739.061196
 20
814.214873
 10
1739.061196
 20
779.110621
  0
LWPOLYLINE
  5
150
330
1F
100
AcDbEntity
  8
0
 62
     7
100
AcDbPolyline
 90
        4
 70
     0
 43
0.0
 10
1739.061196
 20
814.214873
 10
1831.374703
 20
814.214873
 10
1831.374703
 20
779.110621
 10
1927.7701
 20
779.110621
  0
LWPOLYLINE
  5
151
330
1F
100
AcDbEntity
  8
0
 62
     7
100
AcDbPolyline
 90
        2
 70
     0
 43
0.0
 10
1927.7701
 20
814.214873
 10
1927.7701
 20
779.110621
  0
LWPOLYLINE
  5
152
330
1F
100
AcDbEntity
  8
0
 62
     7
100
AcDbPolyline
 90
        4
 70
     0
 43
0.0
 10
1927.7701
 20
814.214873
 10
2020.083607
 20
814.214873
 10
2020.083607
 20
779.110621
 10
2116.479004
 20
779.110621
  0
LWPOLYLINE
  5
153
330
1F
100
AcDbEntity
  8
0
 62
     7
100
AcDbPolyline
 90
        2
 70
     0
 43
0.0
 10
2116.479004
 20
814.214873
 10
2116.479004
 20
779.110621
  0
LWPOLYLINE
  5
154
330
1F
100
AcDbEntity
  8
0
 62
     7
100
AcDbPolyline
 90
        2
 70
     0
 43
0.0
 10
2116.479004
 20
814.214873
 10
2174.708731
 20
814.214873
  0
LWPOLYLINE
  5
155
330
1F
100
AcDbEntity
  8
0
 62
     7
100
AcDbPolyline
 90
        2
 70
     0
 43
0.0
 10
1018.309361
 20
1562.425266
 10
1076.539088
 20
1562.425266
  0
LWPOLYLINE
  5
156
330
1F
100
AcDbEntity
  8
0
 62
     7
100
AcDbPolyline
 90
        2
 70
     0
 43
0.0
 10
1076.539088
 20
1597.529519
 10
1076.539088
 20
1562.425266
  0
LWPOLYLINE
  5
157
330
1F
100
AcDbEntity
  8
0
 62
     7
100
AcDbPolyline
 90
        4
 70
     0
 43
0.0
 10
1076.539088
 20
1597.529519
 10
1172.934485
 20
1597.529519
 10
1172.934485
 20
1562.425266
 10
1265.247992
 20
1562.425266
  0
LWPOLYLINE
  5
158
330
1F
100
AcDbEntity
  8
0
 62
     7
100
AcDbPolyline
 90
        2
 70
     0
 43
0.0
 10
1265.247992
 20
1597.529519
 10
1265.247992
 20
1562.425266
  0
LWPOLYLINE
  5
159
330
1F
100
AcDbEntity
  8
0
 62
     7
100
AcDbPolyline
 90
        4
 70
     0
 43
0.0
 10
1265.247992
 20
1597.529519
 10
1361.643388
 20
1597.529519
 10
1361.643388
 20
1562.425266
 10
1453.956895
 20
1562.425266
  0
LWPOLYLINE
  5
15A
330
1F
100
AcDbEntity
  8
0
 62
     7
100
AcDbPolyline
 90
        2
 70
     0
 43
0.0
 10
1453.956895
 20
1597.529519
 10
1453.956895
 20
1562.425266
  0
LWPOLYLINE
  5
15B
330
1F
100
AcDbEntity
  8
0
 62
     7
100
AcDbPolyline
 90
        4
 70
     0
 43
0.0
 10
1453.956895
 20
1597.529519
 10
1550.352293
 20
1597.529519
 10
1550.352293
 20
1562.425266
 10
1642.6658
 20
1562.425266
  0
LWPOLYLINE
  5
15C
330
1F
100
AcDbEntity
  8
0
 62
     7
100
AcDbPolyline
 90
        2
 70
     0
 43
0.0
 10
1642.6658
 20
1597.529519
 10
1642.6658
 20
1562.425266
  0
LWPOLYLINE
  5
15D
330
1F
100
AcDbEntity
  8
0
 62
     7
100
AcDbPolyline
 90
        4
 70
     0
 43
0.0
 10
1642.6658
 20
1597.529519
 10
1739.061196
 20
1597.529519
 10
1739.061196
 20
1562.425266
 10
1831.374703
 20
1562.425266
  0
LWPOLYLINE
  5
15E
330
1F
100
AcDbEntity
  8
0
 62
     7
100
AcDbPolyline
 90
        2
 70
     0
 43
0.0
 10
1831.374703
 20
1597.529519
 10
1831.374703
 20
1562.425266
  0
LWPOLYLINE
  5
15F
330
1F
100
AcDbEntity
  8
0
 62
     7
100
AcDbPolyline
 90
        4
 70
     0
 43
0.0
 10
1831.374703
 20
1597.529519
 10
1927.7701
 20
1597.529519
 10
1927.7701
 20
1562.425266
 10
2020.083607
 20
1562.425266
  0
LWPOLYLINE
  5
160
330
1F
100
AcDbEntity
  8
0
 62
     7
100
AcDbPolyline
 90
        2
 70
     0
 43
0.0
 10
2020.083607
 20
1597.529519
 10
2020.083607
 20
1562.425266
  0
LWPOLYLINE
  5
161
330
1F
100
AcDbEntity
  8
0
 62
     7
100
AcDbPolyline
 90
        4
 70
     0
 43
0.0
 10
2020.083607
 20
1597.529519
 10
2116.479004
 20
1597.529519
 10
2116.479004
 20
1562.425266
 10
2174.708731
 20
1562.425266
  0
LWPOLYLINE
  5
162
330
1F
100
AcDbEntity
  8
0
 62
     7
100
AcDbPolyline
 90
        4
 70
     0
 43
0.0
 10
1018.309361
 20
814.214873
 10
1018.309361
 20
869.025581
 10
983.205109
 20
869.025581
 10
983.205109
 20
962.001959
  0
LWPOLYLINE
  5
163
330
1F
100
AcDbEntity
  8
0
 62
     7
100
AcDbPolyline
 90
        2
 70
     0
 43
0.0
 10
1018.309361
 20
962.001959
 10
983.205109
 20
962.001959
  0
LWPOLYLINE
  5
164
330
1F
100
AcDbEntity
  8
0
 62
     7
100
AcDbPolyline
 90
        4
 70
     0
 43
0.0
 10
1018.309361
 20
962.001959
 10
1018.309361
 20
1050.896447
 10
983.205109
 20
1050.896447
 10
983.205109
 20
1143.872825
  0
LWPOLYLINE
  5
165
330
1F
100
AcDbEntity
  8
0
 62
     7
100
AcDbPolyline
 90
        2
 70
     0
 43
0.0
 10
1018.309361
 20
1143.872825
 10
983.205109
 20
1143.872825
  0
LWPOLYLINE
  5
166
330
1F
100
AcDbEntity
  8
0
 62
     7
100
AcDbPolyline
 90
        4
 70
     0
 43
0.0
 10
1018.309361
 20
1143.872825
 10
1018.309361
 20
1232.767313
 10
983.205109
 20
1232.767313
 10
983.205109
 20
1325.743691
  0
LWPOLYLINE
  5
167
330
1F
100
AcDbEntity
  8
0
 62
     7
100
AcDbPolyline
 90
        2
 70
     0
 43
0.0
 10
1018.309361
 20
1325.743691
 10
983.205109
 20
1325.743691
  0
LWPOLYLINE
  5
168
330
1F
100
AcDbEntity
  8
0
 62
     7
100
AcDbPolyline
 90
        4
 70
     0
 43
0.0
 10
1018.309361
 20
1325.743691
 10
1018.309361
 20
1414.63818
 10
983.205109
 20
1414.63818
 10
983.205109
 20
1507.614557
  0
LWPOLYLINE
  5
169
330
1F
100
AcDbEntity
  8
0
 62
     7
100
AcDbPolyline
 90
        2
 70
     0
 43
0.0
 10
1018.309361
 20
1507.614557
 10
983.205109
 20
1507.614557
  0
LWPOLYLINE
  5
16A
330
1F
100
AcDbEntity
  8
0
 62
     7
100
AcDbPolyline
 90
        2
 70
     0
 43
0.0
 10
1018.309361
 20
1507.614557
 10
1018.309361
 20
1562.425266
  0
LWPOLYLINE
  5
16B
330
1F
100
AcDbEntity
  8
0
 62
     7
100
AcDbPolyline
 90
        2
 70
     0
 43
0.0
 10
2174.708731
 20
814.214873
 10
2174.708731
 20
869.025581
  0
LWPOLYLINE
  5
16C
330
1F
100
AcDbEntity
  8
0
 62
     7
100
AcDbPolyline
 90
        2
 70
     0
 43
0.0
 10
2209.812982
 20
869.025581
 10
2174.708731
 20
869.025581
  0
LWPOLYLINE
  5
16D
330
1F
100
AcDbEntity
  8
0
 62
     7
100
AcDbPolyline
 90
        4
 70
     0
 43
0.0
 10
2209.812982
 20
869.025581
 10
2209.812982
 20
962.001959
 10
2174.708731
 20
962.001959
 10
2174.708731
 20
1050.896447
  0
LWPOLYLINE
  5
16E
330
1F
100
AcDbEntity
  8
0
 62
     7
100
AcDbPolyline
 90
        2
 70
     0
 43
0.0
 10
2209.812982
 20
1050.896447
 10
2174.708731
 20
1050.896447
  0
LWPOLYLINE
  5
16F
330
1F
100
AcDbEntity
  8
0
 62
     7
100
AcDbPolyline
 90
        4
 70
     0
 43
0.0
 10
2209.812982
 20
1050.896447
 10
2209.812982
 20
1143.872825
 10
2174.708731
 20
1143.872825
 10
2174.708731
 20
1232.767313
  0
LWPOLYLINE
  5
170
330
1F
100
AcDbEntity
  8
0
 62
     7
100
AcDbPolyline
 90
        2
 70
     0
 43
0.0
 10
2209.812982
 20
1232.767313
 10
2174.708731
 20
1232.767313
  0
LWPOLYLINE
  5
171
330
1F
100
AcDbEntity
  8
0
 62
     7
100
AcDbPolyline
 90
        4
 70
     0
 43
0.0
 10
2209.812982
 20
1232.767313
 10
2209.812982
 20
1325.743691
 10
2174.708731
 20
1325.743691
 10
2174.708731
 20
1414.63818
  0
LWPOLYLINE
  5
172
330
1F
100
AcDbEntity
  8
0
 62
     7
100
AcDbPolyline
 90
        2
 70
     0
 43
0.0
 10
2209.812982
 20
1414.63818
 10
2174.708731
 20
1414.63818
  0
LWPOLYLINE
  5
173
330
1F
100
AcDbEntity
  8
0
 62
     7
100
AcDbPolyline
 90
        4
 70
     0
 43
0.0
 10
2209.812982
 20
1414.63818
 10
2209.812982
 20
1507.614557
 10
2174.708731
 20
1507.614557
 10
2174.708731
 20
1562.425266
  0
LWPOLYLINE
  5
174
330
1F
100
AcDbEntity
  8
0
 62
     7
100
AcDbPolyline
 90
        2
 70
     0
 43
0.0
 10
2292.206089
 20
779.110621
 10
2384.161994
 20
779.110621
  0
LWPOLYLINE
  5
175
330
1F
100
AcDbEntity
  8
0
 62
     7
100
AcDbPolyline
 90
        2
 70
     0
 43
0.0
 10
2384.161994
 20
814.214873
 10
2384.161994
 20
779.110621
  0
LWPOLYLINE
  5
176
330
1F
100
AcDbEntity
  8
0
 62
     7
100
AcDbPolyline
 90
        4
 70
     0
 43
0.0
 10
2384.161994
 20
814.214873
 10
2473.056482
 20
814.214873
 10
2473.056482
 20
779.110621
 10
2566.03286
 20
779.110621
  0
LWPOLYLINE
  5
177
330
1F
100
AcDbEntity
  8
0
 62
     7
100
AcDbPolyline
 90
        2
 70
     0
 43
0.0
 10
2566.03286
 20
814.214873
 10
2566.03286
 20
779.110621
  0
LWPOLYLINE
  5
178
330
1F
100
AcDbEntity
  8
0
 62
     7
100
AcDbPolyline
 90
        4
 70
     0
 43
0.0
 10
2566.03286
 20
814.214873
 10
2654.927348
 20
814.214873
 10
2654.927348
 20
779.110621
 10
2747.903726
 20
779.110621
  0
LWPOLYLINE
  5
179
330
1F
100
AcDbEntity
  8
0
 62
     7
100
AcDbPolyline
 90
        2
 70
     0
 43
0.0
 10
2747.903726
 20
814.214873
 10
2747.903726
 20
779.110621
  0
LWPOLYLINE
  5
17A
330
1F
100
AcDbEntity
  8
0
 62
     7
100
AcDbPolyline
 90
        4
 70
     0
 43
0.0
 10
2747.903726
 20
814.214873
 10
2836.798214
 20
814.214873
 10
2836.798214
 20
779.110621
 10
2929.774592
 20
779.110621
  0
LWPOLYLINE
  5
17B
330
1F
100
AcDbEntity
  8
0
 62
     7
100
AcDbPolyline
 90
        2
 70
     0
 43
0.0
 10
2929.774592
 20
814.214873
 10
2929.774592
 20
779.110621
  0
LWPOLYLINE
  5
17C
330
1F
100
AcDbEntity
  8
0
 62
     7
100
AcDbPolyline
 90
        4
 70
     0
 43
0.0
 10
2929.774592
 20
814.214873
 10
3018.66908
 20
814.214873
 10
3018.66908
 20
779.110621
 10
3075.520734
 20
779.110621
  0
LWPOLYLINE
  5
17D
330
1F
100
AcDbEntity
  8
0
 62
     7
100
AcDbPolyline
 90
        4
 70
     0
 43
0.0
 10
2292.206089
 20
1393.43503
 10
2384.161994
 20
1393.43503
 10
2384.161994
 20
1358.330778
 10
2473.056482
 20
1358.330778
  0
LWPOLYLINE
  5
17E
330
1F
100
AcDbEntity
  8
0
 62
     7
100
AcDbPolyline
 90
        2
 70
     0
 43
0.0
 10
2473.056482
 20
1393.43503
 10
2473.056482
 20
1358.330778
  0
LWPOLYLINE
  5
17F
330
1F
100
AcDbEntity
  8
0
 62
     7
100
AcDbPolyline
 90
        4
 70
     0
 43
0.0
 10
2473.056482
 20
1393.43503
 10
2566.03286
 20
1393.43503
 10
2566.03286
 20
1358.330778
 10
2654.927348
 20
1358.330778
  0
LWPOLYLINE
  5
180
330
1F
100
AcDbEntity
  8
0
 62
     7
100
AcDbPolyline
 90
        2
 70
     0
 43
0.0
 10
2654.927348
 20
1393.43503
 10
2654.927348
 20
1358.330778
  0
LWPOLYLINE
  5
181
330
1F
100
AcDbEntity
  8
0
 62
     7
100
AcDbPolyline
 90
        4
 70
     0
 43
0.0
 10
2654.927348
 20
1393.43503
 10
2747.903726
 20
1393.43503
 10
2747.903726
 20
1358.330778
 10
2836.798214
 20
1358.330778
  0
LWPOLYLINE
  5
182
330
1F
100
AcDbEntity
  8
0
 62
     7
100
AcDbPolyline
 90
        2
 70
     0
 43
0.0
 10
2836.798214
 20
1393.43503
 10
2836.798214
 20
1358.330778
  0
LWPOLYLINE
  5
183
330
1F
100
AcDbEntity
  8
0
 62
     7
100
AcDbPolyline
 90
        4
 70
     0
 43
0.0
 10
2836.798214
 20
1393.43503
 10
2929.774592
 20
1393.43503
 10
2929.774592
 20
1358.330778
 10
3018.66908
 20
1358.330778
  0
LWPOLYLINE
  5
184
330
1F
100
AcDbEntity
  8
0
 62
     7
100
AcDbPolyline
 90
        2
 70
     0
 43
0.0
 10
3018.66908
 20
1393.43503
 10
3018.66908
 20
1358.330778
  0
LWPOLYLINE
  5
185
330
1F
100
AcDbEntity
  8
0
 62
     7
100
AcDbPolyline
 90
        2
 70
     0
 43
0.0
 10
3018.66908
 20
1393.43503
 10
3075.520734
 20
1393.43503
  0
LWPOLYLINE
  5
186
330
1F
100
AcDbEntity
  8
0
 62
     7
100
AcDbPolyline
 90
        2
 70
     0
 43
0.0
 10
2292.206089
 20
779.110621
 10
2292.206089
 20
867.891723
  0
LWPOLYLINE
  5
187
330
1F
100
AcDbEntity
  8
0
 62
     7
100
AcDbPolyline
 90
        2
 70
     0
 43
0.0
 10
2327.310341
 20
867.891723
 10
2292.206089
 20
867.891723
  0
LWPOLYLINE
  5
188
330
1F
100
AcDbEntity
  8
0
 62
     7
100
AcDbPolyline
 90
        4
 70
     0
 43
0.0
 10
2327.310341
 20
867.891723
 10
2327.310341
 20
953.611408
 10
2292.206089
 20
953.611408
 10
2292.206089
 20
1043.412983
  0
LWPOLYLINE
  5
189
330
1F
100
AcDbEntity
  8
0
 62
     7
100
AcDbPolyline
 90
        2
 70
     0
 43
0.0
 10
2327.310341
 20
1043.412983
 10
2292.206089
 20
1043.412983
  0
LWPOLYLINE
  5
18A
330
1F
100
AcDbEntity
  8
0
 62
     7
100
AcDbPolyline
 90
        4
 70
     0
 43
0.0
 10
2327.310341
 20
1043.412983
 10
2327.310341
 20
1129.132668
 10
2292.206089
 20
1129.132668
 10
2292.206089
 20
1218.934243
  0
LWPOLYLINE
  5
18B
330
1F
100
AcDbEntity
  8
0
 62
     7
100
AcDbPolyline
 90
        2
 70
     0
 43
0.0
 10
2327.310341
 20
1218.934243
 10
2292.206089
 20
1218.934243
  0
LWPOLYLINE
  5
18C
330
1F
100
AcDbEntity
  8
0
 62
     7
100
AcDbPolyline
 90
        4
 70
     0
 43
0.0
 10
2327.310341
 20
1218.934243
 10
2327.310341
 20
1304.653928
 10
2292.206089
 20
1304.653928
 10
2292.206089
 20
1393.43503
  0
LWPOLYLINE
  5
18D
330
1F
100
AcDbEntity
  8
0
 62
     7
100
AcDbPolyline
 90
        2
 70
     0
 43
0.0
 10
3075.520734
 20
779.110621
 10
3075.520734
 20
865.850778
  0
LWPOLYLINE
  5
18E
330
1F
100
AcDbEntity
  8
0
 62
     7
100
AcDbPolyline
 90
        2
 70
     0
 43
0.0
 10
3110.624986
 20
865.850778
 10
3075.520734
 20
865.850778
  0
LWPOLYLINE
  5
18F
330
1F
100
AcDbEntity
  8
0
 62
     7
100
AcDbPolyline
 90
        4
 70
     0
 43
0.0
 10
3110.624986
 20
865.850778
 10
3110.624986
 20
955.652353
 10
3075.520734
 20
955.652353
 10
3075.520734
 20
1041.372038
  0
LWPOLYLINE
  5
190
330
1F
100
AcDbEntity
  8
0
 62
     7
100
AcDbPolyline
 90
        2
 70
     0
 43
0.0
 10
3110.624986
 20
1041.372038
 10
3075.520734
 20
1041.372038
  0
LWPOLYLINE
  5
191
330
1F
100
AcDbEntity
  8
0
 62
     7
100
AcDbPolyline
 90
        4
 70
     0
 43
0.0
 10
3110.624986
 20
1041.372038
 10
3110.624986
 20
1131.173613
 10
3075.520734
 20
1131.173613
 10
3075.520734
 20
1216.893298
  0
LWPOLYLINE
  5
192
330
1F
100
AcDbEntity
  8
0
 62
     7
100
AcDbPolyline
 90
        2
 70
     0
 43
0.0
 10
3110.624986
 20
1216.893298
 10
3075.520734
 20
1216.893298
  0
LWPOLYLINE
  5
193
330
1F
100
AcDbEntity
  8
0
 62
     7
100
AcDbPolyline
 90
        4
 70
     0
 43
0.0
 10
3110.624986
 20
1216.893298
 10
3110.624986
 20
1306.694873
 10
3075.520734
 20
1306.694873
 10
3075.520734
 20
1393.43503
  0
LWPOLYLINE
  5
194
330
1F
100
AcDbEntity
  8
0
 62
     7
100
AcDbPolyline
 90
        2
 70
     0
 43
0.0
 10
983.205109
 20
1679.922624
 10
1078.580033
 20
1679.922624
  0
LWPOLYLINE
  5
195
330
1F
100
AcDbEntity
  8
0
 62
     7
100
AcDbPolyline
 90
        2
 70
     0
 43
0.0
 10
1078.580033
 20
1715.026876
 10
1078.580033
 20
1679.922624
  0
LWPOLYLINE
  5
196
330
1F
100
AcDbEntity
  8
0
 62
     7
100
AcDbPolyline
 90
        4
 70
     0
 43
0.0
 10
1078.580033
 20
1715.026876
 10
1170.89354
 20
1715.026876
 10
1170.89354
 20
1679.922624
 10
1267.288937
 20
1679.922624
  0
LWPOLYLINE
  5
197
330
1F
100
AcDbEntity
  8
0
 62
     7
100
AcDbPolyline
 90
        2
 70
     0
 43
0.0
 10
1267.288937
 20
1715.026876
 10
1267.288937
 20
1679.922624
  0
LWPOLYLINE
  5
198
330
1F
100
AcDbEntity
  8
0
 62
     7
100
AcDbPolyline
 90
        4
 70
     0
 43
0.0
 10
1267.288937
 20
1715.026876
 10
1359.602443
 20
1715.026876
 10
1359.602443
 20
1679.922624
 10
1455.99784
 20
1679.922624
  0
LWPOLYLINE
  5
199
330
1F
100
AcDbEntity
  8
0
 62
     7
100
AcDbPolyline
 90
        2
 70
     0
 43
0.0
 10
1455.99784
 20
1715.026876
 10
1455.99784
 20
1679.922624
  0
LWPOLYLINE
  5
19A
330
1F
100
AcDbEntity
  8
0
 62
     7
100
AcDbPolyline
 90
        4
 70
     0
 43
0.0
 10
1455.99784
 20
1715.026876
 10
1548.311348
 20
1715.026876
 10
1548.311348
 20
1679.922624
 10
1644.706744
 20
1679.922624
  0
LWPOLYLINE
  5
19B
330
1F
100
AcDbEntity
  8
0
 62
     7
100
AcDbPolyline
 90
        2
 70
     0
 43
0.0
 10
1644.706744
 20
1715.026876
 10
1644.706744
 20
1679.922624
  0
LWPOLYLINE
  5
19C
330
1F
100
AcDbEntity
  8
0
 62
     7
100
AcDbPolyline
 90
        4
 70
     0
 43
0.0
 10
1644.706744
 20
1715.026876
 10
1737.020251
 20
1715.026876
 10
1737.020251
 20
1679.922624
 10
1833.415648
 20
1679.922624
  0
LWPOLYLINE
  5
19D
330
1F
100
AcDbEntity
  8
0
 62
     7
100
AcDbPolyline
 90
        2
 70
     0
 43
0.0
 10
1833.415648
 20
1715.026876
 10
1833.415648
 20
1679.922624
  0
LWPOLYLINE
  5
19E
330
1F
100
AcDbEntity
  8
0
 62
     7
100
AcDbPolyline
 90
        4
 70
     0
 43
0.0
 10
1833.415648
 20
1715.026876
 10
1925.729155
 20
1715.026876
 10
1925.729155
 20
1679.922624
 10
2022.124552
 20
1679.922624
  0
LWPOLYLINE
  5
19F
330
1F
100
AcDbEntity
  8
0
 62
     7
100
AcDbPolyline
 90
        2
 70
     0
 43
0.0
 10
2022.124552
 20
1715.026876
 10
2022.124552
 20
1679.922624
  0
LWPOLYLINE
  5
1A0
330
1F
100
AcDbEntity
  8
0
 62
     7
100
AcDbPolyline
 90
        4
 70
     0
 43
0.0
 10
2022.124552
 20
1715.026876
 10
2114.438059
 20
1715.026876
 10
2114.438059
 20
1679.922624
 10
2174.708731
 20
1679.922624
  0
LWPOLYLINE
  5
1A1
330
1F
100
AcDbEntity
  8
0
 62
     7
100
AcDbPolyline
 90
        4
 70
     0
 43
0.0
 10
983.205109
 20
2294.247033
 10
1078.580033
 20
2294.247033
 10
1078.580033
 20
2259.142781
 10
1170.89354
 20
2259.142781
  0
LWPOLYLINE
  5
1A2
330
1F
100
AcDbEntity
  8
0
 62
     7
100
AcDbPolyline
 90
        2
 70
     0
 43
0.0
 10
1170.89354
 20
2294.247033
 10
1170.89354
 20
2259.142781
  0
LWPOLYLINE
  5
1A3
330
1F
100
AcDbEntity
  8
0
 62
     7
100
AcDbPolyline
 90
        4
 70
     0
 43
0.0
 10
1170.89354
 20
2294.247033
 10
1267.288937
 20
2294.247033
 10
1267.288937
 20
2259.142781
 10
1359.602443
 20
2259.142781
  0
LWPOLYLINE
  5
1A4
330
1F
100
AcDbEntity
  8
0
 62
     7
100
AcDbPolyline
 90
        2
 70
     0
 43
0.0
 10
1359.602443
 20
2294.247033
 10
1359.602443
 20
2259.142781
  0
LWPOLYLINE
  5
1A5
330
1F
100
AcDbEntity
  8
0
 62
     7
100
AcDbPolyline
 90
        4
 70
     0
 43
0.0
 10
1359.602443
 20
2294.247033
 10
1455.99784
 20
2294.247033
 10
1455.99784
 20
2259.142781
 10
1548.311348
 20
2259.142781
  0
LWPOLYLINE
  5
1A6
330
1F
100
AcDbEntity
  8
0
 62
     7
100
AcDbPolyline
 90
        2
 70
     0
 43
0.0
 10
1548.311348
 20
2294.247033
 10
1548.311348
 20
2259.142781
  0
LWPOLYLINE
  5
1A7
330
1F
100
AcDbEntity
  8
0
 62
     7
100
AcDbPolyline
 90
        4
 70
     0
 43
0.0
 10
1548.311348
 20
2294.247033
 10
1644.706744
 20
2294.247033
 10
1644.706744
 20
2259.142781
 10
1737.020251
 20
2259.142781
  0
LWPOLYLINE
  5
1A8
330
1F
100
AcDbEntity
  8
0
 62
     7
100
AcDbPolyline
 90
        2
 70
     0
 43
0.0
 10
1737.020251
 20
2294.247033
 10
1737.020251
 20
2259.142781
  0
LWPOLYLINE
  5
1A9
330
1F
100
AcDbEntity
  8
0
 62
     7
100
AcDbPolyline
 90
        4
 70
     0
 43
0.0
 10
1737.020251
 20
2294.247033
 10
1833.415648
 20
2294.247033
 10
1833.415648
 20
2259.142781
 10
1925.729155
 20
2259.142781
  0
LWPOLYLINE
  5
1AA
330
1F
100
AcDbEntity
  8
0
 62
     7
100
AcDbPolyline
 90
        2
 70
     0
 43
0.0
 10
1925.729155
 20
2294.247033
 10
1925.729155
 20
2259.142781
  0
LWPOLYLINE
  5
1AB
330
1F
100
AcDbEntity
  8
0
 62
     7
100
AcDbPolyline
 90
        4
 70
     0
 43
0.0
 10
1925.729155
 20
2294.247033
 10
2022.124552
 20
2294.247033
 10
2022.124552
 20
2259.142781
 10
2114.438059
 20
2259.142781
  0
LWPOLYLINE
  5
1AC
330
1F
100
AcDbEntity
  8
0
 62
     7
100
AcDbPolyline
 90
        2
 70
     0
 43
0.0
 10
2114.438059
 20
2294.247033
 10
2114.438059
 20
2259.142781
  0
LWPOLYLINE
  5
1AD
330
1F
100
AcDbEntity
  8
0
 62
     7
100
AcDbPolyline
 90
        2
 70
     0
 43
0.0
 10
2114.438059
 20
2294.247033
 10
2174.708731
 20
2294.247033
  0
LWPOLYLINE
  5
1AE
330
1F
100
AcDbEntity
  8
0
 62
     7
100
AcDbPolyline
 90
        2
 70
     0
 43
0.0
 10
983.205109
 20
1679.922624
 10
983.205109
 20
1766.662781
  0
LWPOLYLINE
  5
1AF
330
1F
100
AcDbEntity
  8
0
 62
     7
100
AcDbPolyline
 90
        2
 70
     0
 43
0.0
 10
1018.309361
 20
1766.662781
 10
983.205109
 20
1766.662781
  0
LWPOLYLINE
  5
1B0
330
1F
100
AcDbEntity
  8
0
 62
     7
100
AcDbPolyline
 90
        4
 70
     0
 43
0.0
 10
1018.309361
 20
1766.662781
 10
1018.309361
 20
1856.464356
 10
983.205109
 20
1856.464356
 10
983.205109
 20
1942.184042
  0
LWPOLYLINE
  5
1B1
330
1F
100
AcDbEntity
  8
0
 62
     7
100
AcDbPolyline
 90
        2
 70
     0
 43
0.0
 10
1018.309361
 20
1942.184042
 10
983.205109
 20
1942.184042
  0
LWPOLYLINE
  5
1B2
330
1F
100
AcDbEntity
  8
0
 62
     7
100
AcDbPolyline
 90
        4
 70
     0
 43
0.0
 10
1018.309361
 20
1942.184042
 10
1018.309361
 20
2031.985616
 10
983.205109
 20
2031.985616
 10
983.205109
 20
2117.705301
  0
LWPOLYLINE
  5
1B3
330
1F
100
AcDbEntity
  8
0
 62
     7
100
AcDbPolyline
 90
        2
 70
     0
 43
0.0
 10
1018.309361
 20
2117.705301
 10
983.205109
 20
2117.705301
  0
LWPOLYLINE
  5
1B4
330
1F
100
AcDbEntity
  8
0
 62
     7
100
AcDbPolyline
 90
        4
 70
     0
 43
0.0
 10
1018.309361
 20
2117.705301
 10
1018.309361
 20
2207.506876
 10
983.205109
 20
2207.506876
 10
983.205109
 20
2294.247033
  0
LWPOLYLINE
  5
1B5
330
1F
100
AcDbEntity
  8
0
 62
     7
100
AcDbPolyline
 90
        2
 70
     0
 43
0.0
 10
2174.708731
 20
1679.922624
 10
2174.708731
 20
1766.662781
  0
LWPOLYLINE
  5
1B6
330
1F
100
AcDbEntity
  8
0
 62
     7
100
AcDbPolyline
 90
        2
 70
     0
 43
0.0
 10
2209.812982
 20
1766.662781
 10
2174.708731
 20
1766.662781
  0
LWPOLYLINE
  5
1B7
330
1F
100
AcDbEntity
  8
0
 62
     7
100
AcDbPolyline
 90
        4
 70
     0
 43
0.0
 10
2209.812982
 20
1766.662781
 10
2209.812982
 20
1856.464356
 10
2174.708731
 20
1856.464356
 10
2174.708731
 20
1942.184042
  0
LWPOLYLINE
  5
1B8
330
1F
100
AcDbEntity
  8
0
 62
     7
100
AcDbPolyline
 90
        2
 70
     0
 43
0.0
 10
2209.812982
 20
1942.184042
 10
2174.708731
 20
1942.184042
  0
LWPOLYLINE
  5
1B9
330
1F
100
AcDbEntity
  8
0
 62
     7
100
AcDbPolyline
 90
        4
 70
     0
 43
0.0
 10
2209.812982
 20
1942.184042
 10
2209.812982
 20
2031.985616
 10
2174.708731
 20
2031.985616
 10
2174.708731
 20
2117.705301
  0
LWPOLYLINE
  5
1BA
330
1F
100
AcDbEntity
  8
0
 62
     7
100
AcDbPolyline
 90
        2
 70
     0
 43
0.0
 10
2209.812982
 20
2117.705301
 10
2174.708731
 20
2117.705301
  0
LWPOLYLINE
  5
1BB
330
1F
100
AcDbEntity
  8
0
 62
     7
100
AcDbPolyline
 90
        4
 70
     0
 43
0.0
 10
2209.812982
 20
2117.705301
 10
2209.812982
 20
2207.506876
 10
2174.708731
 20
2207.506876
 10
2174.708731
 20
2294.247033
  0
LWPOLYLINE
  5
1BC
330
1F
100
AcDbEntity
  8
0
 62
     7
100
AcDbPolyline
 90
        4
 70
     0
 43
0.0
 10
1018.309361
 20
2411.744391
 10
1076.539088
 20
2411.744391
 10
1076.539088
 20
2376.640139
 10
1172.934485
 20
2376.640139
  0
LWPOLYLINE
  5
1BD
330
1F
100
AcDbEntity
  8
0
 62
     7
100
AcDbPolyline
 90
        2
 70
     0
 43
0.0
 10
1172.934485
 20
2411.744391
 10
1172.934485
 20
2376.640139
  0
LWPOLYLINE
  5
1BE
330
1F
100
AcDbEntity
  8
0
 62
     7
100
AcDbPolyline
 90
        4
 70
     0
 43
0.0
 10
1172.934485
 20
2411.744391
 10
1265.247992
 20
2411.744391
 10
1265.247992
 20
2376.640139
 10
1361.643388
 20
2376.640139
  0
LWPOLYLINE
  5
1BF
330
1F
100
AcDbEntity
  8
0
 62
     7
100
AcDbPolyline
 90
        2
 70
     0
 43
0.0
 10
1361.643388
 20
2411.744391
 10
1361.643388
 20
2376.640139
  0
LWPOLYLINE
  5
1C0
330
1F
100
AcDbEntity
  8
0
 62
     7
100
AcDbPolyline
 90
        4
 70
     0
 43
0.0
 10
1361.643388
 20
2411.744391
 10
1453.956895
 20
2411.744391
 10
1453.956895
 20
2376.640139
 10
1550.352293
 20
2376.640139
  0
LWPOLYLINE
  5
1C1
330
1F
100
AcDbEntity
  8
0
 62
     7
100
AcDbPolyline
 90
        2
 70
     0
 43
0.0
 10
1550.352293
 20
2411.744391
 10
1550.352293
 20
2376.640139
  0
LWPOLYLINE
  5
1C2
330
1F
100
AcDbEntity
  8
0
 62
     7
100
AcDbPolyline
 90
        4
 70
     0
 43
0.0
 10
1550.352293
 20
2411.744391
 10
1642.6658
 20
2411.744391
 10
1642.6658
 20
2376.640139
 10
1739.061196
 20
2376.640139
  0
LWPOLYLINE
  5
1C3
330
1F
100
AcDbEntity
  8
0
 62
     7
100
AcDbPolyline
 90
        2
 70
     0
 43
0.0
 10
1739.061196
 20
2411.744391
 10
1739.061196
 20
2376.640139
  0
LWPOLYLINE
  5
1C4
330
1F
100
AcDbEntity
  8
0
 62
     7
100
AcDbPolyline
 90
        4
 70
     0
 43
0.0
 10
1739.061196
 20
2411.744391
 10
1831.374703
 20
2411.744391
 10
1831.374703
 20
2376.640139
 10
1927.7701
 20
2376.640139
  0
LWPOLYLINE
  5
1C5
330
1F
100
AcDbEntity
  8
0
 62
     7
100
AcDbPolyline
 90
        2
 70
     0
 43
0.0
 10
1927.7701
 20
2411.744391
 10
1927.7701
 20
2376.640139
  0
LWPOLYLINE
  5
1C6
330
1F
100
AcDbEntity
  8
0
 62
     7
100
AcDbPolyline
 90
        4
 70
     0
 43
0.0
 10
1927.7701
 20
2411.744391
 10
2020.083607
 20
2411.744391
 10
2020.083607
 20
2376.640139
 10
2116.479004
 20
2376.640139
  0
LWPOLYLINE
  5
1C7
330
1F
100
AcDbEntity
  8
0
 62
     7
100
AcDbPolyline
 90
        2
 70
     0
 43
0.0
 10
2116.479004
 20
2411.744391
 10
2116.479004
 20
2376.640139
  0
LWPOLYLINE
  5
1C8
330
1F
100
AcDbEntity
  8
0
 62
     7
100
AcDbPolyline
 90
        2
 70
     0
 43
0.0
 10
2116.479004
 20
2411.744391
 10
2174.708731
 20
2411.744391
  0
LWPOLYLINE
  5
1C9
330
1F
100
AcDbEntity
  8
0
 62
     7
100
AcDbPolyline
 90
        2
 70
     0
 43
0.0
 10
1018.309361
 20
3159.954785
 10
1076.539088
 20
3159.954785
  0
LWPOLYLINE
  5
1CA
330
1F
100
AcDbEntity
  8
0
 62
     7
100
AcDbPolyline
 90
        2
 70
     0
 43
0.0
 10
1076.539088
 20
3195.059036
 10
1076.539088
 20
3159.954785
  0
LWPOLYLINE
  5
1CB
330
1F
100
AcDbEntity
  8
0
 62
     7
100
AcDbPolyline
 90
        4
 70
     0
 43
0.0
 10
1076.539088
 20
3195.059036
 10
1172.934485
 20
3195.059036
 10
1172.934485
 20
3159.954785
 10
1265.247992
 20
3159.954785
  0
LWPOLYLINE
  5
1CC
330
1F
100
AcDbEntity
  8
0
 62
     7
100
AcDbPolyline
 90
        2
 70
     0
 43
0.0
 10
1265.247992
 20
3195.059036
 10
1265.247992
 20
3159.954785
  0
LWPOLYLINE
  5
1CD
330
1F
100
AcDbEntity
  8
0
 62
     7
100
AcDbPolyline
 90
        4
 70
     0
 43
0.0
 10
1265.247992
 20
3195.059036
 10
1361.643388
 20
3195.059036
 10
1361.643388
 20
3159.954785
 10
1453.956895
 20
3159.954785
  0
LWPOLYLINE
  5
1CE
330
1F
100
AcDbEntity
  8
0
 62
     7
100
AcDbPolyline
 90
        2
 70
     0
 43
0.0
 10
1453.956895
 20
3195.059036
 10
1453.956895
 20
3159.954785
  0
LWPOLYLINE
  5
1CF
330
1F
100
AcDbEntity
  8
0
 62
     7
100
AcDbPolyline
 90
        4
 70
     0
 43
0.0
 10
1453.956895
 20
3195.059036
 10
1550.352293
 20
3195.059036
 10
1550.352293
 20
3159.954785
 10
1642.6658
 20
3159.954785
  0
LWPOLYLINE
  5
1D0
330
1F
100
AcDbEntity
  8
0
 62
     7
100
AcDbPolyline
 90
        2
 70
     0
 43
0.0
 10
1642.6658
 20
3195.059036
 10
1642.6658
 20
3159.954785
  0
LWPOLYLINE
  5
1D1
330
1F
100
AcDbEntity
  8
0
 62
     7
100
AcDbPolyline
 90
        4
 70
     0
 43
0.0
 10
1642.6658
 20
3195.059036
 10
1739.061196
 20
3195.059036
 10
1739.061196
 20
3159.954785
 10
1831.374703
 20
3159.954785
  0
LWPOLYLINE
  5
1D2
330
1F
100
AcDbEntity
  8
0
 62
     7
100
AcDbPolyline
 90
        2
 70
     0
 43
0.0
 10
1831.374703
 20
3195.059036
 10
1831.374703
 20
3159.954785
  0
LWPOLYLINE
  5
1D3
330
1F
100
AcDbEntity
  8
0
 62
     7
100
AcDbPolyline
 90
        4
 70
     0
 43
0.0
 10
1831.374703
 20
3195.059036
 10
1927.7701
 20
3195.059036
 10
1927.7701
 20
3159.954785
 10
2020.083607
 20
3159.954785
  0
LWPOLYLINE
  5
1D4
330
1F
100
AcDbEntity
  8
0
 62
     7
100
AcDbPolyline
 90
        2
 70
     0
 43
0.0
 10
2020.083607
 20
3195.059036
 10
2020.083607
 20
3159.954785
  0
LWPOLYLINE
  5
1D5
330
1F
100
AcDbEntity
  8
0
 62
     7
100
AcDbPolyline
 90
        4
 70
     0
 43
0.0
 10
2020.083607
 20
3195.059036
 10
2116.479004
 20
3195.059036
 10
2116.479004
 20
3159.954785
 10
2174.708731
 20
3159.954785
  0
LWPOLYLINE
  5
1D6
330
1F
100
AcDbEntity
  8
0
 62
     7
100
AcDbPolyline
 90
        4
 70
     0
 43
0.0
 10
1018.309361
 20
2411.744391
 10
1018.309361
 20
2466.5551
 10
983.205109
 20
2466.5551
 10
983.205109
 20
2559.531478
  0
LWPOLYLINE
  5
1D7
330
1F
100
AcDbEntity
  8
0
 62
     7
100
AcDbPolyline
 90
        2
 70
     0
 43
0.0
 10
1018.309361
 20
2559.531478
 10
983.205109
 20
2559.531478
  0
LWPOLYLINE
  5
1D8
330
1F
100
AcDbEntity
  8
0
 62
     7
100
AcDbPolyline
 90
        4
 70
     0
 43
0.0
 10
1018.309361
 20
2559.531478
 10
1018.309361
 20
2648.425966
 10
983.205109
 20
2648.425966
 10
983.205109
 20
2741.402344
  0
LWPOLYLINE
  5
1D9
330
1F
100
AcDbEntity
  8
0
 62
     7
100
AcDbPolyline
 90
        2
 70
     0
 43
0.0
 10
1018.309361
 20
2741.402344
 10
983.205109
 20
2741.402344
  0
LWPOLYLINE
  5
1DA
330
1F
100
AcDbEntity
  8
0
 62
     7
100
AcDbPolyline
 90
        4
 70
     0
 43
0.0
 10
1018.309361
 20
2741.402344
 10
1018.309361
 20
2830.296832
 10
983.205109
 20
2830.296832
 10
983.205109
 20
2923.27321
  0
LWPOLYLINE
  5
1DB
330
1F
100
AcDbEntity
  8
0
 62
     7
100
AcDbPolyline
 90
        2
 70
     0
 43
0.0
 10
1018.309361
 20
2923.27321
 10
983.205109
 20
2923.27321
  0
LWPOLYLINE
  5
1DC
330
1F
100
AcDbEntity
  8
0
 62
     7
100
AcDbPolyline
 90
        4
 70
     0
 43
0.0
 10
1018.309361
 20
2923.27321
 10
1018.309361
 20
3012.167698
 10
983.205109
 20
3012.167698
 10
983.205109
 20
3105.144076
  0
LWPOLYLINE
  5
1DD
330
1F
100
AcDbEntity
  8
0
 62
     7
100
AcDbPolyline
 90
        2
 70
     0
 43
0.0
 10
1018.309361
 20
3105.144076
 10
983.205109
 20
3105.144076
  0
LWPOLYLINE
  5
1DE
330
1F
100
AcDbEntity
  8
0
 62
     7
100
AcDbPolyline
 90
        2
 70
     0
 43
0.0
 10
1018.309361
 20
3105.144076
 10
1018.309361
 20
3159.954785
  0
LWPOLYLINE
  5
1DF
330
1F
100
AcDbEntity
  8
0
 62
     7
100
AcDbPolyline
 90
        2
 70
     0
 43
0.0
 10
2174.708731
 20
2411.744391
 10
2174.708731
 20
2466.5551
  0
LWPOLYLINE
  5
1E0
330
1F
100
AcDbEntity
  8
0
 62
     7
100
AcDbPolyline
 90
        2
 70
     0
 43
0.0
 10
2209.812982
 20
2466.5551
 10
2174.708731
 20
2466.5551
  0
LWPOLYLINE
  5
1E1
330
1F
100
AcDbEntity
  8
0
 62
     7
100
AcDbPolyline
 90
        4
 70
     0
 43
0.0
 10
2209.812982
 20
2466.5551
 10
2209.812982
 20
2559.531478
 10
2174.708731
 20
2559.531478
 10
2174.708731
 20
2648.425966
  0
LWPOLYLINE
  5
1E2
330
1F
100
AcDbEntity
  8
0
 62
     7
100
AcDbPolyline
 90
        2
 70
     0
 43
0.0
 10
2209.812982
 20
2648.425966
 10
2174.708731
 20
2648.425966
  0
LWPOLYLINE
  5
1E3
330
1F
100
AcDbEntity
  8
0
 62
     7
100
AcDbPolyline
 90
        4
 70
     0
 43
0.0
 10
2209.812982
 20
2648.425966
 10
2209.812982
 20
2741.402344
 10
2174.708731
 20
2741.402344
 10
2174.708731
 20
2830.296832
  0
LWPOLYLINE
  5
1E4
330
1F
100
AcDbEntity
  8
0
 62
     7
100
AcDbPolyline
 90
        2
 70
     0
 43
0.0
 10
2209.812982
 20
2830.296832
 10
2174.708731
 20
2830.296832
  0
LWPOLYLINE
  5
1E5
330
1F
100
AcDbEntity
  8
0
 62
     7
100
AcDbPolyline
 90
        4
 70
     0
 43
0.0
 10
2209.812982
 20
2830.296832
 10
2209.812982
 20
2923.27321
 10
2174.708731
 20
2923.27321
 10
2174.708731
 20
3012.167698
  0
LWPOLYLINE
  5
1E6
330
1F
100
AcDbEntity
  8
0
 62
     7
100
AcDbPolyline
 90
        2
 70
     0
 43
0.0
 10
2209.812982
 20
3012.167698
 10
2174.708731
 20
3012.167698
  0
SPLINE
  5
1E7
330
1F
100
AcDbEntity
  8
0
 62
     7
100
AcDbSpline
210
0.0
220
0.0
230
1.0
 70
     8
 71
     3
 72
     8
 73
     4
 74
     0
 42
0.000000001
 43
0.0000001
 40
0.0
 40
0.0
 40
0.0
 40
0.0
 40
1.0
 40
1.0
 40
1.0
 40
1.0
 10
1348.960832
 20
1076.630585
 30
0.0
 10
1348.960832
 20
1116.533395
 30
0.0
 10
1327.672936
 20
1153.405111
 30
0.0
 10
1293.11609
 20
1173.356516
 30
0.0
  0
SPLINE
  5
1E8
330
1F
100
AcDbEntity
  8
0
 62
     7
100
AcDbSpline
210
0.0
220
0.0
230
1.0
 70
     8
 71
     3
 72
     8
 73
     4
 74
     0
 42
0.000000001
 43
0.0000001
 40
0.0
 40
0.0
 40
0.0
 40
0.0
 40
1.0
 40
1.0
 40
1.0
 40
1.0
 10
1293.11609
 20
1173.356516
 30
0.0
 10
1258.559243
 20
1193.30792
 30
0.0
 10
1215.983452
 20
1193.30792
 30
0.0
 10
1181.426606
 20
1173.356516
 30
0.0
  0
SPLINE
  5
1E9
330
1F
100
AcDbEntity
  8
0
 62
     7
100
AcDbSpline
210
0.0
220
0.0
230
1.0
 70
     8
 71
     3
 72
     8
 73
     4
 74
     0
 42
0.000000001
 43
0.0000001
 40
0.0
 40
0.0
 40
0.0
 40
0.0
 40
1.0
 40
1.0
 40
1.0
 40
1.0
 10
1181.426606
 20
1173.356516
 30
0.0
 10
1146.869759
 20
1153.405111
 30
0.0
 10
1125.581864
 20
1116.533395
 30
0.0
 10
1125.581864
 20
1076.630585
 30
0.0
  0
SPLINE
  5
1EA
330
1F
100
AcDbEntity
  8
0
 62
     7
100
AcDbSpline
210
0.0
220
0.0
230
1.0
 70
     8
 71
     3
 72
     8
 73
     4
 74
     0
 42
0.000000001
 43
0.0000001
 40
0.0
 40
0.0
 40
0.0
 40
0.0
 40
1.0
 40
1.0
 40
1.0
 40
1.0
 10
1125.581864
 20
1076.630585
 30
0.0
 10
1125.581864
 20
1036.727776
 30
0.0
 10
1146.869759
 20
999.856059
 30
0.0
 10
1181.426606
 20
979.904655
 30
0.0
  0
SPLINE
  5
1EB
330
1F
100
AcDbEntity
  8
0
 62
     7
100
AcDbSpline
210
0.0
220
0.0
230
1.0
 70
     8
 71
     3
 72
     8
 73
     4
 74
     0
 42
0.000000001
 43
0.0000001
 40
0.0
 40
0.0
 40
0.0
 40
0.0
 40
1.0
 40
1.0
 40
1.0
 40
1.0
 10
1181.426606
 20
979.904655
 30
0.0
 10
1215.983452
 20
959.95325
 30
0.0
 10
1258.559243
 20
959.95325
 30
0.0
 10
1293.11609
 20
979.904655
 30
0.0
  0
SPLINE
  5
1EC
330
1F
100
AcDbEntity
  8
0
 62
     7
100
AcDbSpline
210
0.0
220
0.0
230
1.0
 70
     8
 71
     3
 72
     8
 73
     4
 74
     0
 42
0.000000001
 43
0.0000001
 40
0.0
 40
0.0
 40
0.0
 40
0.0
 40
1.0
 40
1.0
 40
1.0
 40
1.0
 10
1293.11609
 20
979.904655
 30
0.0
 10
1327.672936
 20
999.856059
 30
0.0
 10
1348.960832
 20
1036.727776
 30
0.0
 10
1348.960832
 20
1076.630585
 30
0.0
  0
LWPOLYLINE
  5
1ED
330
1F
100
AcDbEntity
  8
0
 62
     7
100
AcDbPolyline
 90
        4
 70
     0
 43
0.0
 10
2209.812982
 20
3012.167698
 10
2209.812982
 20
3105.144076
 10
2174.708731
 20
3105.144076
 10
2174.708731
 20
3159.954785
  0
SPLINE
  5
1EE
330
1F
100
AcDbEntity
  8
0
 62
     7
100
AcDbSpline
210
0.0
220
0.0
230
1.0
 70
     8
 71
     3
 72
     8
 73
     4
 74
     0
 42
0.000000001
 43
0.0000001
 40
0.0
 40
0.0
 40
0.0
 40
0.0
 40
1.0
 40
1.0
 40
1.0
 40
1.0
 10
1708.19853
 20
1076.630585
 30
0.0
 10
1708.198532
 20
1116.533396
 30
0.0
 10
1686.910637
 20
1153.405114
 30
0.0
 10
1652.353789
 20
1173.35652
 30
0.0
  0
SPLINE
  5
1EF
330
1F
100
AcDbEntity
  8
0
 62
     7
100
AcDbSpline
210
0.0
220
0.0
230
1.0
 70
     8
 71
     3
 72
     8
 73
     4
 74
     0
 42
0.000000001
 43
0.0000001
 40
0.0
 40
0.0
 40
0.0
 40
0.0
 40
1.0
 40
1.0
 40
1.0
 40
1.0
 10
1652.353789
 20
1173.35652
 30
0.0
 10
1617.796942
 20
1193.307925
 30
0.0
 10
1575.22115
 20
1193.307925
 30
0.0
 10
1540.664303
 20
1173.35652
 30
0.0
  0
SPLINE
  5
1F0
330
1F
100
AcDbEntity
  8
0
 62
     7
100
AcDbSpline
210
0.0
220
0.0
230
1.0
 70
     8
 71
     3
 72
     8
 73
     4
 74
     0
 42
0.000000001
 43
0.0000001
 40
0.0
 40
0.0
 40
0.0
 40
0.0
 40
1.0
 40
1.0
 40
1.0
 40
1.0
 10
1540.664303
 20
1173.35652
 30
0.0
 10
1506.107455
 20
1153.405114
 30
0.0
 10
1484.81956
 20
1116.533396
 30
0.0
 10
1484.819562
 20
1076.630585
 30
0.0
  0
SPLINE
  5
1F1
330
1F
100
AcDbEntity
  8
0
 62
     7
100
AcDbSpline
210
0.0
220
0.0
230
1.0
 70
     8
 71
     3
 72
     8
 73
     4
 74
     0
 42
0.000000001
 43
0.0000001
 40
0.0
 40
0.0
 40
0.0
 40
0.0
 40
1.0
 40
1.0
 40
1.0
 40
1.0
 10
1484.819562
 20
1076.630585
 30
0.0
 10
1484.819562
 20
1036.727776
 30
0.0
 10
1506.107457
 20
999.856059
 30
0.0
 10
1540.664304
 20
979.904655
 30
0.0
  0
SPLINE
  5
1F2
330
1F
100
AcDbEntity
  8
0
 62
     7
100
AcDbSpline
210
0.0
220
0.0
230
1.0
 70
     8
 71
     3
 72
     8
 73
     4
 74
     0
 42
0.000000001
 43
0.0000001
 40
0.0
 40
0.0
 40
0.0
 40
0.0
 40
1.0
 40
1.0
 40
1.0
 40
1.0
 10
1540.664304
 20
979.904655
 30
0.0
 10
1575.221151
 20
959.95325
 30
0.0
 10
1617.796941
 20
959.95325
 30
0.0
 10
1652.353788
 20
979.904655
 30
0.0
  0
SPLINE
  5
1F3
330
1F
100
AcDbEntity
  8
0
 62
     7
100
AcDbSpline
210
0.0
220
0.0
230
1.0
 70
     8
 71
     3
 72
     8
 73
     4
 74
     0
 42
0.000000001
 43
0.0000001
 40
0.0
 40
0.0
 40
0.0
 40
0.0
 40
1.0
 40
1.0
 40
1.0
 40
1.0
 10
1652.353788
 20
979.904655
 30
0.0
 10
1686.910635
 20
999.856059
 30
0.0
 10
1708.19853
 20
1036.727776
 30
0.0
 10
1708.19853
 20
1076.630585
 30
0.0
  0
LWPOLYLINE
  5
1F4
330
1F
100
AcDbEntity
  8
0
 62
     7
100
AcDbPolyline
 90
        2
 70
     1
 43
0.0
 10
1348.960832
 20
1076.630585
 10
1348.960832
 20
1076.630585
  0
SPLINE
  5
1F5
330
1F
100
AcDbEntity
  8
0
 62
     7
100
AcDbSpline
210
0.0
220
0.0
230
1.0
 70
     8
 71
     3
 72
     8
 73
     4
 74
     0
 42
0.000000001
 43
0.0000001
 40
0.0
 40
0.0
 40
0.0
 40
0.0
 40
1.0
 40
1.0
 40
1.0
 40
1.0
 10
2067.436228
 20
1076.630585
 30
0.0
 10
2067.436228
 20
1116.533395
 30
0.0
 10
2046.148333
 20
1153.405111
 30
0.0
 10
2011.591486
 20
1173.356516
 30
0.0
  0
SPLINE
  5
1F6
330
1F
100
AcDbEntity
  8
0
 62
     7
100
AcDbSpline
210
0.0
220
0.0
230
1.0
 70
     8
 71
     3
 72
     8
 73
     4
 74
     0
 42
0.000000001
 43
0.0000001
 40
0.0
 40
0.0
 40
0.0
 40
0.0
 40
1.0
 40
1.0
 40
1.0
 40
1.0
 10
2011.591486
 20
1173.356516
 30
0.0
 10
1977.03464
 20
1193.30792
 30
0.0
 10
1934.458849
 20
1193.30792
 30
0.0
 10
1899.902002
 20
1173.356516
 30
0.0
  0
SPLINE
  5
1F7
330
1F
100
AcDbEntity
  8
0
 62
     7
100
AcDbSpline
210
0.0
220
0.0
230
1.0
 70
     8
 71
     3
 72
     8
 73
     4
 74
     0
 42
0.000000001
 43
0.0000001
 40
0.0
 40
0.0
 40
0.0
 40
0.0
 40
1.0
 40
1.0
 40
1.0
 40
1.0
 10
1899.902002
 20
1173.356516
 30
0.0
 10
1865.345156
 20
1153.405111
 30
0.0
 10
1844.05726
 20
1116.533395
 30
0.0
 10
1844.05726
 20
1076.630585
 30
0.0
  0
SPLINE
  5
1F8
330
1F
100
AcDbEntity
  8
0
 62
     7
100
AcDbSpline
210
0.0
220
0.0
230
1.0
 70
     8
 71
     3
 72
     8
 73
     4
 74
     0
 42
0.000000001
 43
0.0000001
 40
0.0
 40
0.0
 40
0.0
 40
0.0
 40
1.0
 40
1.0
 40
1.0
 40
1.0
 10
1844.05726
 20
1076.630585
 30
0.0
 10
1844.05726
 20
1036.727776
 30
0.0
 10
1865.345156
 20
999.856059
 30
0.0
 10
1899.902002
 20
979.904655
 30
0.0
  0
SPLINE
  5
1F9
330
1F
100
AcDbEntity
  8
0
 62
     7
100
AcDbSpline
210
0.0
220
0.0
230
1.0
 70
     8
 71
     3
 72
     8
 73
     4
 74
     0
 42
0.000000001
 43
0.0000001
 40
0.0
 40
0.0
 40
0.0
 40
0.0
 40
1.0
 40
1.0
 40
1.0
 40
1.0
 10
1899.902002
 20
979.904655
 30
0.0
 10
1934.458849
 20
959.95325
 30
0.0
 10
1977.03464
 20
959.95325
 30
0.0
 10
2011.591486
 20
979.904655
 30
0.0
  0
SPLINE
  5
1FA
330
1F
100
AcDbEntity
  8
0
 62
     7
100
AcDbSpline
210
0.0
220
0.0
230
1.0
 70
     8
 71
     3
 72
     8
 73
     4
 74
     0
 42
0.000000001
 43
0.0000001
 40
0.0
 40
0.0
 40
0.0
 40
0.0
 40
1.0
 40
1.0
 40
1.0
 40
1.0
 10
2011.591486
 20
979.904655
 30
0.0
 10
2046.148333
 20
999.856059
 30
0.0
 10
2067.436228
 20
1036.727776
 30
0.0
 10
2067.436228
 20
1076.630585
 30
0.0
  0
LWPOLYLINE
  5
1FB
330
1F
100
AcDbEntity
  8
0
 62
     7
100
AcDbPolyline
 90
        2
 70
     1
 43
0.0
 10
1708.19853
 20
1076.630585
 10
1708.19853
 20
1076.630585
  0
SPLINE
  5
1FC
330
1F
100
AcDbEntity
  8
0
 62
     7
100
AcDbSpline
210
0.0
220
0.0
230
1.0
 70
     8
 71
     3
 72
     8
 73
     4
 74
     0
 42
0.000000001
 43
0.0000001
 40
0.0
 40
0.0
 40
0.0
 40
0.0
 40
1.0
 40
1.0
 40
1.0
 40
1.0
 10
1293.078434
 20
1354.513316
 30
0.0
 10
1293.078434
 20
1374.451268
 30
0.0
 10
1282.441664
 20
1392.874695
 30
0.0
 10
1265.174891
 20
1402.843671
 30
0.0
  0
SPLINE
  5
1FD
330
1F
100
AcDbEntity
  8
0
 62
     7
100
AcDbSpline
210
0.0
220
0.0
230
1.0
 70
     8
 71
     3
 72
     8
 73
     4
 74
     0
 42
0.000000001
 43
0.0000001
 40
0.0
 40
0.0
 40
0.0
 40
0.0
 40
1.0
 40
1.0
 40
1.0
 40
1.0
 10
1265.174891
 20
1402.843671
 30
0.0
 10
1247.908118
 20
1412.812647
 30
0.0
 10
1226.634577
 20
1412.812647
 30
0.0
 10
1209.367804
 20
1402.843671
 30
0.0
  0
SPLINE
  5
1FE
330
1F
100
AcDbEntity
  8
0
 62
     7
100
AcDbSpline
210
0.0
220
0.0
230
1.0
 70
     8
 71
     3
 72
     8
 73
     4
 74
     0
 42
0.000000001
 43
0.0000001
 40
0.0
 40
0.0
 40
0.0
 40
0.0
 40
1.0
 40
1.0
 40
1.0
 40
1.0
 10
1209.367804
 20
1402.843671
 30
0.0
 10
1192.101031
 20
1392.874695
 30
0.0
 10
1181.464261
 20
1374.451268
 30
0.0
 10
1181.464261
 20
1354.513316
 30
0.0
  0
SPLINE
  5
1FF
330
1F
100
AcDbEntity
  8
0
 62
     7
100
AcDbSpline
210
0.0
220
0.0
230
1.0
 70
     8
 71
     3
 72
     8
 73
     4
 74
     0
 42
0.000000001
 43
0.0000001
 40
0.0
 40
0.0
 40
0.0
 40
0.0
 40
1.0
 40
1.0
 40
1.0
 40
1.0
 10
1181.464261
 20
1354.513316
 30
0.0
 10
1181.464261
 20
1334.575365
 30
0.0
 10
1192.101031
 20
1316.151937
 30
0.0
 10
1209.367804
 20
1306.182961
 30
0.0
  0
SPLINE
  5
200
330
1F
100
AcDbEntity
  8
0
 62
     7
100
AcDbSpline
210
0.0
220
0.0
230
1.0
 70
     8
 71
     3
 72
     8
 73
     4
 74
     0
 42
0.000000001
 43
0.0000001
 40
0.0
 40
0.0
 40
0.0
 40
0.0
 40
1.0
 40
1.0
 40
1.0
 40
1.0
 10
1209.367804
 20
1306.182961
 30
0.0
 10
1226.634577
 20
1296.213986
 30
0.0
 10
1247.908118
 20
1296.213986
 30
0.0
 10
1265.174891
 20
1306.182961
 30
0.0
  0
SPLINE
  5
201
330
1F
100
AcDbEntity
  8
0
 62
     7
100
AcDbSpline
210
0.0
220
0.0
230
1.0
 70
     8
 71
     3
 72
     8
 73
     4
 74
     0
 42
0.000000001
 43
0.0000001
 40
0.0
 40
0.0
 40
0.0
 40
0.0
 40
1.0
 40
1.0
 40
1.0
 40
1.0
 10
1265.174891
 20
1306.182961
 30
0.0
 10
1282.441664
 20
1316.151937
 30
0.0
 10
1293.078434
 20
1334.575365
 30
0.0
 10
1293.078434
 20
1354.513316
 30
0.0
  0
LWPOLYLINE
  5
202
330
1F
100
AcDbEntity
  8
0
 62
     7
100
AcDbPolyline
 90
        2
 70
     1
 43
0.0
 10
2067.436228
 20
1076.630585
 10
2067.436228
 20
1076.630585
  0
SPLINE
  5
203
330
1F
100
AcDbEntity
  8
0
 62
     7
100
AcDbSpline
210
0.0
220
0.0
230
1.0
 70
     8
 71
     3
 72
     8
 73
     4
 74
     0
 42
0.000000001
 43
0.0000001
 40
0.0
 40
0.0
 40
0.0
 40
0.0
 40
1.0
 40
1.0
 40
1.0
 40
1.0
 10
1652.316133
 20
1356.349824
 30
0.0
 10
1652.316133
 20
1376.287776
 30
0.0
 10
1641.679362
 20
1394.711203
 30
0.0
 10
1624.412589
 20
1404.680179
 30
0.0
  0
SPLINE
  5
204
330
1F
100
AcDbEntity
  8
0
 62
     7
100
AcDbSpline
210
0.0
220
0.0
230
1.0
 70
     8
 71
     3
 72
     8
 73
     4
 74
     0
 42
0.000000001
 43
0.0000001
 40
0.0
 40
0.0
 40
0.0
 40
0.0
 40
1.0
 40
1.0
 40
1.0
 40
1.0
 10
1624.412589
 20
1404.680179
 30
0.0
 10
1607.145817
 20
1414.649155
 30
0.0
 10
1585.872275
 20
1414.649155
 30
0.0
 10
1568.605503
 20
1404.680179
 30
0.0
  0
SPLINE
  5
205
330
1F
100
AcDbEntity
  8
0
 62
     7
100
AcDbSpline
210
0.0
220
0.0
230
1.0
 70
     8
 71
     3
 72
     8
 73
     4
 74
     0
 42
0.000000001
 43
0.0000001
 40
0.0
 40
0.0
 40
0.0
 40
0.0
 40
1.0
 40
1.0
 40
1.0
 40
1.0
 10
1568.605503
 20
1404.680179
 30
0.0
 10
1551.33873
 20
1394.711203
 30
0.0
 10
1540.701959
 20
1376.287776
 30
0.0
 10
1540.701959
 20
1356.349824
 30
0.0
  0
SPLINE
  5
206
330
1F
100
AcDbEntity
  8
0
 62
     7
100
AcDbSpline
210
0.0
220
0.0
230
1.0
 70
     8
 71
     3
 72
     8
 73
     4
 74
     0
 42
0.000000001
 43
0.0000001
 40
0.0
 40
0.0
 40
0.0
 40
0.0
 40
1.0
 40
1.0
 40
1.0
 40
1.0
 10
1540.701959
 20
1356.349824
 30
0.0
 10
1540.701959
 20
1336.411872
 30
0.0
 10
1551.33873
 20
1317.988445
 30
0.0
 10
1568.605503
 20
1308.019469
 30
0.0
  0
SPLINE
  5
207
330
1F
100
AcDbEntity
  8
0
 62
     7
100
AcDbSpline
210
0.0
220
0.0
230
1.0
 70
     8
 71
     3
 72
     8
 73
     4
 74
     0
 42
0.000000001
 43
0.0000001
 40
0.0
 40
0.0
 40
0.0
 40
0.0
 40
1.0
 40
1.0
 40
1.0
 40
1.0
 10
1568.605503
 20
1308.019469
 30
0.0
 10
1585.872275
 20
1298.050493
 30
0.0
 10
1607.145817
 20
1298.050493
 30
0.0
 10
1624.412589
 20
1308.019469
 30
0.0
  0
SPLINE
  5
208
330
1F
100
AcDbEntity
  8
0
 62
     7
100
AcDbSpline
210
0.0
220
0.0
230
1.0
 70
     8
 71
     3
 72
     8
 73
     4
 74
     0
 42
0.000000001
 43
0.0000001
 40
0.0
 40
0.0
 40
0.0
 40
0.0
 40
1.0
 40
1.0
 40
1.0
 40
1.0
 10
1624.412589
 20
1308.019469
 30
0.0
 10
1641.679362
 20
1317.988445
 30
0.0
 10
1652.316133
 20
1336.411872
 30
0.0
 10
1652.316133
 20
1356.349824
 30
0.0
  0
LWPOLYLINE
  5
209
330
1F
100
AcDbEntity
  8
0
 62
     7
100
AcDbPolyline
 90
        2
 70
     1
 43
0.0
 10
1293.078434
 20
1354.513316
 10
1293.078434
 20
1354.513316
  0
SPLINE
  5
20A
330
1F
100
AcDbEntity
  8
0
 62
     7
100
AcDbSpline
210
0.0
220
0.0
230
1.0
 70
     8
 71
     3
 72
     8
 73
     4
 74
     0
 42
0.000000001
 43
0.0000001
 40
0.0
 40
0.0
 40
0.0
 40
0.0
 40
1.0
 40
1.0
 40
1.0
 40
1.0
 10
2011.55383
 20
1354.513316
 30
0.0
 10
2011.556142
 20
1374.452809
 30
0.0
 10
2000.919877
 20
1392.878649
 30
0.0
 10
1983.652155
 20
1402.849062
 30
0.0
  0
SPLINE
  5
20B
330
1F
100
AcDbEntity
  8
0
 62
     7
100
AcDbSpline
210
0.0
220
0.0
230
1.0
 70
     8
 71
     3
 72
     8
 73
     4
 74
     0
 42
0.000000001
 43
0.0000001
 40
0.0
 40
0.0
 40
0.0
 40
0.0
 40
1.0
 40
1.0
 40
1.0
 40
1.0
 10
1983.652155
 20
1402.849062
 30
0.0
 10
1966.384433
 20
1412.819476
 30
0.0
 10
1945.109055
 20
1412.819476
 30
0.0
 10
1927.841333
 20
1402.849062
 30
0.0
  0
SPLINE
  5
20C
330
1F
100
AcDbEntity
  8
0
 62
     7
100
AcDbSpline
210
0.0
220
0.0
230
1.0
 70
     8
 71
     3
 72
     8
 73
     4
 74
     0
 42
0.000000001
 43
0.0000001
 40
0.0
 40
0.0
 40
0.0
 40
0.0
 40
1.0
 40
1.0
 40
1.0
 40
1.0
 10
1927.841333
 20
1402.849062
 30
0.0
 10
1910.573611
 20
1392.878649
 30
0.0
 10
1899.937346
 20
1374.452809
 30
0.0
 10
1899.939658
 20
1354.513316
 30
0.0
  0
SPLINE
  5
20D
330
1F
100
AcDbEntity
  8
0
 62
     7
100
AcDbSpline
210
0.0
220
0.0
230
1.0
 70
     8
 71
     3
 72
     8
 73
     4
 74
     0
 42
0.000000001
 43
0.0000001
 40
0.0
 40
0.0
 40
0.0
 40
0.0
 40
1.0
 40
1.0
 40
1.0
 40
1.0
 10
1899.939658
 20
1354.513316
 30
0.0
 10
1899.937346
 20
1334.573824
 30
0.0
 10
1910.573611
 20
1316.147984
 30
0.0
 10
1927.841333
 20
1306.17757
 30
0.0
  0
SPLINE
  5
20E
330
1F
100
AcDbEntity
  8
0
 62
     7
100
AcDbSpline
210
0.0
220
0.0
230
1.0
 70
     8
 71
     3
 72
     8
 73
     4
 74
     0
 42
0.000000001
 43
0.0000001
 40
0.0
 40
0.0
 40
0.0
 40
0.0
 40
1.0
 40
1.0
 40
1.0
 40
1.0
 10
1927.841333
 20
1306.17757
 30
0.0
 10
1945.109055
 20
1296.207157
 30
0.0
 10
1966.384433
 20
1296.207157
 30
0.0
 10
1983.652155
 20
1306.17757
 30
0.0
  0
SPLINE
  5
20F
330
1F
100
AcDbEntity
  8
0
 62
     7
100
AcDbSpline
210
0.0
220
0.0
230
1.0
 70
     8
 71
     3
 72
     8
 73
     4
 74
     0
 42
0.000000001
 43
0.0000001
 40
0.0
 40
0.0
 40
0.0
 40
0.0
 40
1.0
 40
1.0
 40
1.0
 40
1.0
 10
1983.652155
 20
1306.17757
 30
0.0
 10
2000.919877
 20
1316.147984
 30
0.0
 10
2011.556142
 20
1334.573824
 30
0.0
 10
2011.55383
 20
1354.513316
 30
0.0
  0
LWPOLYLINE
  5
210
330
1F
100
AcDbEntity
  8
0
 62
     7
100
AcDbPolyline
 90
        2
 70
     1
 43
0.0
 10
1652.316133
 20
1356.349824
 10
1652.316133
 20
1356.349824
  0
LWPOLYLINE
  5
211
330
1F
100
AcDbEntity
  8
0
 62
     7
100
AcDbPolyline
 90
        2
 70
     1
 43
0.0
 10
2011.55383
 20
1354.513316
 10
2011.55383
 20
1354.513316
  0
ENDSEC
  0
SECTION
  2
OBJECTS
  0
DICTIONARY
  5
C
330
0
100
AcDbDictionary
  3
ACAD_GROUP
350
D
  3
ACAD_IMAGE_VARS
350
1004B
  3
ACAD_MLINESTYLE
350
17
  3
ACAD_SCALELIST
350
10003
  3
APPDATA
350
10049
  3
DWGPROPS
350
1004C
  0
DICTIONARY
  5
D
330
C
100
AcDbDictionary
  0
RASTERVARIABLES
  5
1004B
102
{ACAD_REACTORS
330
C
102
}
330
C
100
AcDbRasterVariables
 90
        0
 70
     1
 71
     1
 72
     0
  0
DICTIONARY
  5
17
330
C
100
AcDbDictionary
  3
STANDARD
350
FFFF
  0
DICTIONARY
  5
10003
102
{ACAD_REACTORS
330
C
102
}
330
C
100
AcDbDictionary
  0
DICTIONARY
  5
10049
102
{ACAD_REACTORS
330
C
102
}
330
C
100
AcDbDictionary
  0
XRECORD
  5
1004C
102
{ACAD_REACTORS
330
C
102
}
330
C
100
AcDbXrecord
  1
DWGPROPS COOKIE
  2

  3

  4

  6

  7

  8
merichar
  9

300
=
301
=
302
=
303
=
304
=
305
=
306
=
307
=
308
=
309
=
 40
0.0
 41
0.0
 42
2458065.855428542
  1

 90
        0
  0
MLINESTYLE
  5
FFFF
102
{ACAD_REACTORS
330
17
102
}
330
17
100
AcDbMlineStyle
  2
Standard
 70
     0
  3

 62
   256
 51
90.0
 52
90.0
 71
     2
 49
0.5
 62
   256
  6
BYLAYER
 49
-0.5
 62
   256
  6
BYLAYER
  0
ENDSEC
  0
EOF
