  0
SECTION
  2
HEADER
  9
$ACADVER
  1
AC1014
  9
$HANDSEED
  5
FFFF
  9
$MEASUREMENT
 70
     1
  0
ENDSEC
  0
SECTION
  2
TABLES
  0
TABLE
  2
VPORT
  5
8
330
0
100
AcDbSymbolTable
 70
     4
  0
VPORT
  5
2E
330
8
100
AcDbSymbolTableRecord
100
AcDbViewportTableRecord
  2
*ACTIVE
 70
     0
 10
0.0
 20
0.0
 11
1.0
 21
1.0
 12
210.0
 22
148.5
 13
0.0
 23
0.0
 14
10.0
 24
10.0
 15
10.0
 25
10.0
 16
0.0
 26
0.0
 36
1.0
 17
0.0
 27
0.0
 37
0.0
 40
341.0
 41
1.24
 42
50.0
 43
0.0
 44
0.0
 50
0.0
 51
0.0
 71
     0
 72
   100
 73
     1
 74
     3
 75
     0
 76
     0
 77
     0
 78
     0
  0
ENDTAB
  0
TABLE
  2
LTYPE
  5
5
330
0
100
AcDbSymbolTable
 70
     1
  0
LTYPE
  5
14
330
5
100
AcDbSymbolTableRecord
100
AcDbLinetypeTableRecord
  2
BYBLOCK
 70
     0
  3

 72
    65
 73
     0
 40
0.0
  0
LTYPE
  5
15
330
5
100
AcDbSymbolTableRecord
100
AcDbLinetypeTableRecord
  2
BYLAYER
 70
     0
  3

 72
    65
 73
     0
 40
0.0
  0
LTYPE
  5
16
330
5
100
AcDbSymbolTableRecord
100
AcDbLinetypeTableRecord
  2
CONTINUOUS
 70
     0
  3
Solid line
 72
    65
 73
     0
 40
0.0
  0
ENDTAB
  0
TABLE
  2
LAYER
  5
2
100
AcDbSymbolTable
 70
2
  0
LAYER
  5
50
100
AcDbSymbolTableRecord
100
AcDbLayerTableRecord
  2
0
 70
0
  6
CONTINUOUS
  0
LAYER
  5
51
100
AcDbSymbolTableRecord
100
AcDbLayerTableRecord
  2
ink_ext_XXXXXX
 70
0
  6
CONTINUOUS
  0
ENDTAB
  0
TABLE
  2
STYLE
  5
3
330
0
100
AcDbSymbolTable
 70
     1
  0
STYLE
  5
11
330
3
100
AcDbSymbolTableRecord
100
AcDbTextStyleTableRecord
  2
STANDARD
 70
     0
 40
0.0
 41
1.0
 50
0.0
 71
     0
 42
2.5
  3
txt
  4

  0
ENDTAB
  0
TABLE
  2
VIEW
  5
6
330
0
100
AcDbSymbolTable
 70
     0
  0
ENDTAB
  0
TABLE
  2
UCS
  5
7
330
0
100
AcDbSymbolTable
 70
     0
  0
ENDTAB
  0
TABLE
  2
APPID
  5
9
330
0
100
AcDbSymbolTable
 70
     2
  0
APPID
  5
12
330
9
100
AcDbSymbolTableRecord
100
AcDbRegAppTableRecord
  2
ACAD
 70
     0
  0
ENDTAB
  0
TABLE
  2
DIMSTYLE
  5
A
330
0
100
AcDbSymbolTable
 70
     1
  0
DIMSTYLE
105
27
330
A
100
AcDbSymbolTableRecord
100
AcDbDimStyleTableRecord
  2
ISO-25
 70
     0
  3

  4

  5

  6

  7

 40
1.0
 41
2.5
 42
0.625
 43
3.75
 44
1.25
 45
0.0
 46
0.0
 47
0.0
 48
0.0
140
2.5
141
2.5
142
0.0
143
0.03937007874016
144
1.0
145
0.0
146
1.0
147
0.625
 71
     0
 72
     0
 73
     0
 74
     0
 75
     0
 76
     0
 77
     1
 78
     8
170
     0
171
     3
172
     1
173
     0
174
     0
175
     0
176
     0
177
     0
178
     0
270
     2
271
     2
272
     2
273
     2
274
     3
340
11
275
     0
280
     0
281
     0
282
     0
283
     0
284
     8
285
     0
286
     0
287
     3
288
     0
  0
ENDTAB
  0
TABLE
  2
BLOCK_RECORD
  5
1
330
0
100
AcDbSymbolTable
 70
     1
  0
BLOCK_RECORD
  5
1F
330
1
100
AcDbSymbolTableRecord
100
AcDbBlockTableRecord
  2
*MODEL_SPACE
  0
BLOCK_RECORD
  5
1B
330
1
100
AcDbSymbolTableRecord
100
AcDbBlockTableRecord
  2
*PAPER_SPACE
  0
ENDTAB
  0
ENDSEC
  0
SECTION
  2
BLOCKS
  0
BLOCK
  5
20
330
1F
100
AcDbEntity
  8
0
100
AcDbBlockBegin
  2
*MODEL_SPACE
 70
     0
 10
0.0
 20
0.0
 30
0.0
  3
*MODEL_SPACE
  1

  0
ENDBLK
  5
21
330
1F
100
AcDbEntity
  8
0
100
AcDbBlockEnd
  0
BLOCK
  5
1C
330
1B
100
AcDbEntity
 67
     1
  8
0
100
AcDbBlockBegin
  2
*PAPER_SPACE
  1

  0
ENDBLK
  5
1D
330
1B
100
AcDbEntity
 67
     1
  8
0
100
AcDbBlockEnd
  0
ENDSEC
  0
SECTION
  2
ENTITIES
  0
SPLINE
  5
100
100
AcDbEntity
  8
ink_ext_XXXXXX
 62
1
100
AcDbSpline
 70
0
 71
3
 72
19
 73
15
 74
13
 40
0.000000
 40
0.000000
 40
0.000000
 40
0.000000
 40
3.238712
 40
6.387439
 40
9.626151
 40
12.864947
 40
16.013697
 40
19.252410
 40
22.491123
 40
25.639873
 40
28.878670
 40
32.117382
 40
35.266108
 40
38.504820
 40
38.504820
 40
38.504820
 40
38.504820
 10
107.500000
 20
113.624500
 30
0.0
 10
108.591658
 20
113.452944
 30
0.0
 10
110.744645
 20
113.114598
 30
0.0
 10
113.113494
 20
110.647419
 30
0.0
 10
113.998325
 20
107.429576
 30
0.0
 10
113.113506
 20
104.177668
 30
0.0
 10
110.744656
 20
101.810697
 30
0.0
 10
107.500000
 20
100.925201
 30
0.0
 10
104.255344
 20
101.810697
 30
0.0
 10
101.886494
 20
104.177668
 30
0.0
 10
101.001675
 20
107.429576
 30
0.0
 10
101.886506
 20
110.647419
 30
0.0
 10
104.255355
 20
113.114598
 30
0.0
 10
106.408342
 20
113.452944
 30
0.0
 10
107.500000
 20
113.624500
 30
0.0
 11
107.500000
 21
113.624500
 31
0.0
 11
110.625569
 21
112.775931
 31
0.0
 11
112.852056
 21
110.549444
 31
0.0
 11
113.700625
 21
107.423875
 31
0.0
 11
112.852056
 21
104.298218
 31
0.0
 11
110.625569
 21
102.071699
 31
0.0
 11
107.500000
 21
101.223125
 31
0.0
 11
104.374431
 21
102.071699
 31
0.0
 11
102.147944
 21
104.298218
 31
0.0
 11
101.299375
 21
107.423875
 31
0.0
 11
102.147944
 21
110.549444
 31
0.0
 11
104.374431
 21
112.775931
 31
0.0
 11
107.500000
 21
113.624500
 31
0.0
  0
LWPOLYLINE
  5
101
100
AcDbEntity
  8
ink_ext_XXXXXX
 62
1
100
AcDbPolyline
 90
2
 70
1
 10
107.500000
 20
113.624500
 30
0.0
 10
107.500000
 20
113.624500
 30
0.0
  0
SPLINE
  5
102
100
AcDbEntity
  8
ink_ext_XXXXXX
 62
1
100
AcDbSpline
 70
0
 71
3
 72
19
 73
15
 74
13
 40
0.000000
 40
0.000000
 40
0.000000
 40
0.000000
 40
18.506791
 40
36.500443
 40
55.007378
 40
73.513974
 40
91.507533
 40
110.014320
 40
128.520994
 40
146.514865
 40
165.021540
 40
183.528554
 40
201.522516
 40
220.029196
 40
220.029196
 40
220.029196
 40
220.029196
 10
107.500000
 20
142.857500
 30
0.0
 10
113.737966
 20
141.876929
 30
0.0
 10
126.040938
 20
139.942974
 30
0.0
 10
139.576787
 20
125.844256
 30
0.0
 10
144.633959
 20
107.456727
 30
0.0
 10
139.576735
 20
88.874617
 30
0.0
 10
126.040895
 20
75.349224
 30
0.0
 10
107.500018
 20
70.287876
 30
0.0
 10
88.959153
 20
75.349364
 30
0.0
 10
75.423004
 20
88.874487
 30
0.0
 10
70.365242
 20
107.456727
 30
0.0
 10
75.422955
 20
125.844384
 30
0.0
 10
88.959100
 20
139.942841
 30
0.0
 10
101.262094
 20
141.876891
 30
0.0
 10
107.500000
 20
142.857500
 30
0.0
 11
107.500000
 21
142.857500
 31
0.0
 11
125.360093
 21
138.007921
 31
0.0
 11
138.083241
 21
125.284204
 31
0.0
 11
142.932500
 21
107.423875
 31
0.0
 11
138.083241
 21
89.563898
 31
0.0
 11
125.360093
 21
76.840310
 31
0.0
 11
107.500000
 21
71.990750
 31
0.0
 11
89.640023
 21
76.840310
 31
0.0
 11
76.916435
 21
89.563898
 31
0.0
 11
72.066875
 21
107.423875
 31
0.0
 11
76.916435
 21
125.284204
 31
0.0
 11
89.640023
 21
138.007921
 31
0.0
 11
107.500000
 21
142.857500
 31
0.0
  0
LWPOLYLINE
  5
103
100
AcDbEntity
  8
ink_ext_XXXXXX
 62
1
100
AcDbPolyline
 90
2
 70
1
 10
107.500000
 20
142.857500
 30
0.0
 10
107.500000
 20
142.857500
 30
0.0
  0
SPLINE
  5
104
100
AcDbEntity
  8
ink_ext_XXXXXX
 62
1
100
AcDbSpline
 70
0
 71
3
 72
19
 73
15
 74
13
 40
0.000000
 40
0.000000
 40
0.000000
 40
0.000000
 40
3.238746
 40
6.387643
 40
9.626480
 40
12.865009
 40
16.013857
 40
19.252606
 40
22.491355
 40
25.640203
 40
28.878732
 40
32.117569
 40
35.266466
 40
38.505212
 40
38.505212
 40
38.505212
 40
38.505212
 10
107.500000
 20
42.758750
 30
0.0
 10
108.591669
 20
42.587152
 30
0.0
 10
110.744723
 20
42.248717
 30
0.0
 10
113.113452
 20
39.781286
 30
0.0
 10
113.998354
 20
36.563453
 30
0.0
 10
113.113394
 20
33.311609
 30
0.0
 10
110.744694
 20
30.944622
 30
0.0
 10
107.500000
 20
30.058865
 30
0.0
 10
104.255306
 20
30.944622
 30
0.0
 10
101.886606
 20
33.311609
 30
0.0
 10
101.001646
 20
36.563453
 30
0.0
 10
101.886548
 20
39.781286
 30
0.0
 10
104.255277
 20
42.248717
 30
0.0
 10
106.408331
 20
42.587152
 30
0.0
 10
107.500000
 20
42.758750
 30
0.0
 11
107.500000
 21
42.758750
 31
0.0
 11
110.625569
 21
41.910051
 31
0.0
 11
112.852056
 21
39.683324
 31
0.0
 11
113.700625
 21
36.557625
 31
0.0
 11
112.852056
 21
33.432245
 31
0.0
 11
110.625569
 21
31.205588
 31
0.0
 11
107.500000
 21
30.356875
 31
0.0
 11
104.374431
 21
31.205588
 31
0.0
 11
102.147944
 21
33.432245
 31
0.0
 11
101.299375
 21
36.557625
 31
0.0
 11
102.147944
 21
39.683324
 31
0.0
 11
104.374431
 21
41.910051
 31
0.0
 11
107.500000
 21
42.758750
 31
0.0
  0
LWPOLYLINE
  5
105
100
AcDbEntity
  8
ink_ext_XXXXXX
 62
1
100
AcDbPolyline
 90
2
 70
1
 10
107.500000
 20
42.758750
 30
0.0
 10
107.500000
 20
42.758750
 30
0.0
  0
SPLINE
  5
106
100
AcDbEntity
  8
ink_ext_XXXXXX
 62
1
100
AcDbSpline
 70
0
 71
3
 72
19
 73
15
 74
13
 40
0.000000
 40
0.000000
 40
0.000000
 40
0.000000
 40
18.506757
 40
36.500238
 40
55.007049
 40
73.513642
 40
91.507197
 40
110.013983
 40
128.520657
 40
146.514524
 40
165.021196
 40
183.528085
 40
201.521877
 40
220.028522
 40
220.028522
 40
220.028522
 40
220.028522
 10
107.500000
 20
71.990750
 30
0.0
 10
113.737956
 20
71.010220
 30
0.0
 10
126.040863
 20
69.076354
 30
0.0
 10
139.576816
 20
54.977892
 30
0.0
 10
144.633953
 20
36.590429
 30
0.0
 10
139.576735
 20
18.008371
 30
0.0
 10
126.040894
 20
4.482982
 30
0.0
 10
107.500018
 20
-0.578361
 30
0.0
 10
88.959154
 20
4.483121
 30
0.0
 10
75.423005
 20
18.008242
 30
0.0
 10
70.365248
 20
36.590429
 30
0.0
 10
75.422926
 20
54.978020
 30
0.0
 10
88.959175
 20
69.076221
 30
0.0
 10
101.262104
 20
71.010183
 30
0.0
 10
107.500000
 20
71.990750
 30
0.0
 11
107.500000
 21
71.990750
 31
0.0
 11
125.360093
 21
67.141301
 31
0.0
 11
138.083241
 21
54.417824
 31
0.0
 11
142.932500
 21
36.557625
 31
0.0
 11
138.083241
 21
18.697651
 31
0.0
 11
125.360093
 21
5.974069
 31
0.0
 11
107.500000
 21
1.124511
 31
0.0
 11
89.640023
 21
5.974069
 31
0.0
 11
76.916435
 21
18.697651
 31
0.0
 11
72.066875
 21
36.557625
 31
0.0
 11
76.916435
 21
54.417824
 31
0.0
 11
89.640023
 21
67.141301
 31
0.0
 11
107.500000
 21
71.990750
 31
0.0
  0
LWPOLYLINE
  5
107
100
AcDbEntity
  8
ink_ext_XXXXXX
 62
1
100
AcDbPolyline
 90
2
 70
1
 10
107.500000
 20
71.990750
 30
0.0
 10
107.500000
 20
71.990750
 30
0.0
  0
SPLINE
  5
108
100
AcDbEntity
  8
ink_ext_XXXXXX
 62
1
100
AcDbSpline
 70
0
 71
3
 72
19
 73
15
 74
13
 40
0.000000
 40
0.000000
 40
0.000000
 40
0.000000
 40
3.238797
 40
6.387547
 40
9.626260
 40
12.865058
 40
16.013830
 40
19.252628
 40
22.491341
 40
25.640091
 40
28.878888
 40
32.117600
 40
35.266326
 40
38.505038
 40
38.505038
 40
38.505038
 40
38.505038
 10
36.633750
 20
113.624500
 30
0.0
 10
37.725438
 20
113.452948
 30
0.0
 10
39.878463
 20
113.114613
 30
0.0
 10
42.247366
 20
110.647430
 30
0.0
 10
43.132200
 20
107.429576
 30
0.0
 10
42.247378
 20
104.177657
 30
0.0
 10
39.878475
 20
101.810681
 30
0.0
 10
36.633778
 20
100.925205
 30
0.0
 10
33.389094
 20
101.810694
 30
0.0
 10
31.020244
 20
104.177669
 30
0.0
 10
30.135425
 20
107.429576
 30
0.0
 10
31.020256
 20
110.647419
 30
0.0
 10
33.389105
 20
113.114598
 30
0.0
 10
35.542092
 20
113.452944
 30
0.0
 10
36.633750
 20
113.624500
 30
0.0
 11
36.633750
 21
113.624500
 31
0.0
 11
39.759407
 21
112.775931
 31
0.0
 11
41.985926
 21
110.549444
 31
0.0
 11
42.834500
 21
107.423875
 31
0.0
 11
41.985926
 21
104.298218
 31
0.0
 11
39.759407
 21
102.071699
 31
0.0
 11
36.633750
 21
101.223125
 31
0.0
 11
33.508181
 21
102.071699
 31
0.0
 11
31.281694
 21
104.298218
 31
0.0
 11
30.433125
 21
107.423875
 31
0.0
 11
31.281694
 21
110.549444
 31
0.0
 11
33.508181
 21
112.775931
 31
0.0
 11
36.633750
 21
113.624500
 31
0.0
  0
LWPOLYLINE
  5
109
100
AcDbEntity
  8
ink_ext_XXXXXX
 62
1
100
AcDbPolyline
 90
2
 70
1
 10
36.633750
 20
113.624500
 30
0.0
 10
36.633750
 20
113.624500
 30
0.0
  0
SPLINE
  5
10a
100
AcDbEntity
  8
ink_ext_XXXXXX
 62
1
100
AcDbSpline
 70
0
 71
3
 72
19
 73
15
 74
13
 40
0.000000
 40
0.000000
 40
0.000000
 40
0.000000
 40
18.506894
 40
36.500778
 40
55.007763
 40
73.514408
 40
91.508200
 40
110.015090
 40
128.521750
 40
146.515600
 40
165.022271
 40
183.529281
 40
201.523223
 40
220.029888
 40
220.029888
 40
220.029888
 40
220.029888
 10
36.633750
 20
142.857500
 30
0.0
 10
42.871739
 20
141.876914
 30
0.0
 10
55.174802
 20
139.942924
 30
0.0
 10
68.710936
 20
125.844356
 30
0.0
 10
73.768440
 20
107.456727
 30
0.0
 10
68.710885
 20
88.874515
 30
0.0
 10
55.174757
 20
75.349284
 30
0.0
 10
36.633818
 20
70.287864
 30
0.0
 10
18.092914
 20
75.349361
 30
0.0
 10
4.556796
 20
88.874496
 30
0.0
 10
-0.500941
 20
107.456727
 30
0.0
 10
4.556746
 20
125.844376
 30
0.0
 10
18.092865
 20
139.942843
 30
0.0
 10
30.395848
 20
141.876892
 30
0.0
 10
36.633750
 20
142.857500
 30
0.0
 11
36.633750
 21
142.857500
 31
0.0
 11
54.493949
 21
138.007921
 31
0.0
 11
67.217426
 21
125.284204
 31
0.0
 11
72.066875
 21
107.423875
 31
0.0
 11
67.217426
 21
89.563898
 31
0.0
 11
54.493949
 21
76.840310
 31
0.0
 11
36.633750
 21
71.990750
 31
0.0
 11
18.773788
 21
76.840310
 31
0.0
 11
6.050229
 21
89.563898
 31
0.0
 11
1.200684
 21
107.423875
 31
0.0
 11
6.050229
 21
125.284204
 31
0.0
 11
18.773788
 21
138.007921
 31
0.0
 11
36.633750
 21
142.857500
 31
0.0
  0
LWPOLYLINE
  5
10b
100
AcDbEntity
  8
ink_ext_XXXXXX
 62
1
100
AcDbPolyline
 90
2
 70
1
 10
36.633750
 20
142.857500
 30
0.0
 10
36.633750
 20
142.857500
 30
0.0
  0
SPLINE
  5
10c
100
AcDbEntity
  8
ink_ext_XXXXXX
 62
1
100
AcDbSpline
 70
0
 71
3
 72
19
 73
15
 74
13
 40
0.000000
 40
0.000000
 40
0.000000
 40
0.000000
 40
3.238831
 40
6.387751
 40
9.626589
 40
12.865119
 40
16.013990
 40
19.252824
 40
22.491573
 40
25.640421
 40
28.878950
 40
32.117787
 40
35.266684
 40
38.505430
 40
38.505430
 40
38.505430
 40
38.505430
 10
36.633750
 20
42.758750
 30
0.0
 10
37.725449
 20
42.587156
 30
0.0
 10
39.878541
 20
42.248732
 30
0.0
 10
42.247324
 20
39.781297
 30
0.0
 10
43.132230
 20
36.563453
 30
0.0
 10
42.247266
 20
33.311598
 30
0.0
 10
39.878513
 20
30.944607
 30
0.0
 10
36.633778
 20
30.058868
 30
0.0
 10
33.389056
 20
30.944620
 30
0.0
 10
31.020356
 20
33.311610
 30
0.0
 10
30.135396
 20
36.563452
 30
0.0
 10
31.020298
 20
39.781286
 30
0.0
 10
33.389027
 20
42.248717
 30
0.0
 10
35.542081
 20
42.587152
 30
0.0
 10
36.633750
 20
42.758750
 30
0.0
 11
36.633750
 21
42.758750
 31
0.0
 11
39.759407
 21
41.910051
 31
0.0
 11
41.985926
 21
39.683324
 31
0.0
 11
42.834500
 21
36.557625
 31
0.0
 11
41.985926
 21
33.432245
 31
0.0
 11
39.759407
 21
31.205588
 31
0.0
 11
36.633750
 21
30.356875
 31
0.0
 11
33.508181
 21
31.205588
 31
0.0
 11
31.281694
 21
33.432245
 31
0.0
 11
30.433125
 21
36.557625
 31
0.0
 11
31.281694
 21
39.683324
 31
0.0
 11
33.508181
 21
41.910051
 31
0.0
 11
36.633750
 21
42.758750
 31
0.0
  0
LWPOLYLINE
  5
10d
100
AcDbEntity
  8
ink_ext_XXXXXX
 62
1
100
AcDbPolyline
 90
2
 70
1
 10
36.633750
 20
42.758750
 30
0.0
 10
36.633750
 20
42.758750
 30
0.0
  0
SPLINE
  5
10e
100
AcDbEntity
  8
ink_ext_XXXXXX
 62
1
100
AcDbSpline
 70
0
 71
3
 72
19
 73
15
 74
13
 40
0.000000
 40
0.000000
 40
0.000000
 40
0.000000
 40
18.506860
 40
36.500574
 40
55.007434
 40
73.514076
 40
91.507865
 40
110.014753
 40
128.521412
 40
146.515259
 40
165.021927
 40
183.528812
 40
201.522584
 40
220.029215
 40
220.029215
 40
220.029215
 40
220.029215
 10
36.633750
 20
71.990750
 30
0.0
 10
42.871730
 20
71.010206
 30
0.0
 10
55.174727
 20
69.076304
 30
0.0
 10
68.710965
 20
54.977992
 30
0.0
 10
73.768434
 20
36.590429
 30
0.0
 10
68.710884
 20
18.008270
 30
0.0
 10
55.174755
 20
4.483041
 30
0.0
 10
36.633818
 20
-0.578373
 30
0.0
 10
18.092916
 20
4.483119
 30
0.0
 10
4.556796
 20
18.008250
 30
0.0
 10
-0.500935
 20
36.590429
 30
0.0
 10
4.556716
 20
54.978012
 30
0.0
 10
18.092940
 20
69.076224
 30
0.0
 10
30.395858
 20
71.010183
 30
0.0
 10
36.633750
 20
71.990750
 30
0.0
 11
36.633750
 21
71.990750
 31
0.0
 11
54.493949
 21
67.141301
 31
0.0
 11
67.217426
 21
54.417824
 31
0.0
 11
72.066875
 21
36.557625
 31
0.0
 11
67.217426
 21
18.697651
 31
0.0
 11
54.493949
 21
5.974069
 31
0.0
 11
36.633750
 21
1.124511
 31
0.0
 11
18.773788
 21
5.974069
 31
0.0
 11
6.050229
 21
18.697651
 31
0.0
 11
1.200684
 21
36.557625
 31
0.0
 11
6.050229
 21
54.417824
 31
0.0
 11
18.773788
 21
67.141301
 31
0.0
 11
36.633750
 21
71.990750
 31
0.0
  0
LWPOLYLINE
  5
10f
100
AcDbEntity
  8
ink_ext_XXXXXX
 62
1
100
AcDbPolyline
 90
2
 70
1
 10
36.633750
 20
71.990750
 30
0.0
 10
36.633750
 20
71.990750
 30
0.0
  0
SPLINE
  5
110
100
AcDbEntity
  8
ink_ext_XXXXXX
 62
1
100
AcDbSpline
 70
0
 71
3
 72
19
 73
15
 74
13
 40
0.000000
 40
0.000000
 40
0.000000
 40
0.000000
 40
3.238640
 40
6.387524
 40
9.625937
 40
12.865199
 40
16.014312
 40
19.252964
 40
22.491617
 40
25.640730
 40
28.879991
 40
32.118404
 40
35.267288
 40
38.505928
 40
38.505928
 40
38.505928
 40
38.505928
 10
298.838750
 20
322.392500
 30
0.0
 10
299.930360
 20
322.220924
 30
0.0
 10
302.083328
 20
321.882528
 30
0.0
 10
304.452496
 20
319.415863
 30
0.0
 10
305.337851
 20
316.197954
 30
0.0
 10
304.452622
 20
312.945852
 30
0.0
 10
302.083446
 20
310.578935
 30
0.0
 10
298.838750
 20
309.693289
 30
0.0
 10
295.594054
 20
310.578935
 30
0.0
 10
293.224878
 20
312.945852
 30
0.0
 10
292.339649
 20
316.197954
 30
0.0
 10
293.225004
 20
319.415863
 30
0.0
 10
295.594172
 20
321.882528
 30
0.0
 10
297.747140
 20
322.220924
 30
0.0
 10
298.838750
 20
322.392500
 30
0.0
 11
298.838750
 21
322.392500
 31
0.0
 11
301.964259
 21
321.543981
 31
0.0
 11
304.191157
 21
319.317685
 31
0.0
 11
305.040000
 21
316.192500
 31
0.0
 11
304.191157
 21
313.066435
 31
0.0
 11
301.964259
 21
310.839815
 31
0.0
 11
298.838750
 21
309.991250
 31
0.0
 11
295.713241
 21
310.839815
 31
0.0
 11
293.486343
 21
313.066435
 31
0.0
 11
292.637500
 21
316.192500
 31
0.0
 11
293.486343
 21
319.317685
 31
0.0
 11
295.713241
 21
321.543981
 31
0.0
 11
298.838750
 21
322.392500
 31
0.0
  0
LWPOLYLINE
  5
111
100
AcDbEntity
  8
ink_ext_XXXXXX
 62
1
100
AcDbPolyline
 90
2
 70
1
 10
298.838750
 20
322.392500
 30
0.0
 10
298.838750
 20
322.392500
 30
0.0
  0
SPLINE
  5
112
100
AcDbEntity
  8
ink_ext_XXXXXX
 62
1
100
AcDbSpline
 70
0
 71
3
 72
19
 73
15
 74
13
 40
0.000000
 40
0.000000
 40
0.000000
 40
0.000000
 40
7.402504
 40
14.599738
 40
22.001633
 40
29.404913
 40
36.602180
 40
44.004623
 40
51.407380
 40
58.605072
 40
66.008437
 40
73.410417
 40
80.608077
 40
88.010893
 40
88.010893
 40
88.010893
 40
88.010893
 10
298.838750
 20
330.365000
 30
0.0
 10
301.333852
 20
329.972731
 30
0.0
 10
306.254867
 20
329.199070
 30
0.0
 10
311.668865
 20
323.559914
 30
0.0
 10
313.691799
 20
316.205166
 30
0.0
 10
311.669193
 20
308.772346
 30
0.0
 10
306.254919
 20
303.361958
 30
0.0
 10
298.838630
 20
301.337691
 30
0.0
 10
291.422285
 20
303.362035
 30
0.0
 10
286.007437
 20
308.772157
 30
0.0
 10
283.984273
 20
316.205167
 30
0.0
 10
286.007767
 20
323.560099
 30
0.0
 10
291.422329
 20
329.199012
 30
0.0
 10
296.343560
 20
329.972713
 30
0.0
 10
298.838750
 20
330.365000
 30
0.0
 11
298.838750
 21
330.365000
 31
0.0
 11
305.982546
 21
328.425093
 31
0.0
 11
311.071620
 21
323.335741
 31
0.0
 11
313.011250
 21
316.192500
 31
0.0
 11
311.071620
 21
309.047824
 31
0.0
 11
305.982546
 21
303.958426
 31
0.0
 11
298.838750
 21
302.018750
 31
0.0
 11
291.694630
 21
303.958426
 31
0.0
 11
286.604954
 21
309.047824
 31
0.0
 11
284.665000
 21
316.192500
 31
0.0
 11
286.604954
 21
323.335741
 31
0.0
 11
291.694630
 21
328.425093
 31
0.0
 11
298.838750
 21
330.365000
 31
0.0
  0
LWPOLYLINE
  5
113
100
AcDbEntity
  8
ink_ext_XXXXXX
 62
1
100
AcDbPolyline
 90
2
 70
1
 10
298.838750
 20
330.365000
 30
0.0
 10
298.838750
 20
330.365000
 30
0.0
  0
SPLINE
  5
114
100
AcDbEntity
  8
ink_ext_XXXXXX
 62
1
100
AcDbSpline
 70
0
 71
3
 72
19
 73
15
 74
13
 40
0.000000
 40
0.000000
 40
0.000000
 40
0.000000
 40
3.238653
 40
6.387766
 40
9.627027
 40
12.865440
 40
16.014324
 40
19.252964
 40
22.491605
 40
25.640489
 40
28.878901
 40
32.118163
 40
35.267276
 40
38.505928
 40
38.505928
 40
38.505928
 40
38.505928
 10
298.838750
 20
350.738750
 30
0.0
 10
299.930376
 20
350.567170
 30
0.0
 10
302.083446
 20
350.228754
 30
0.0
 10
304.452622
 20
347.761544
 30
0.0
 10
305.337851
 20
344.543505
 30
0.0
 10
304.452496
 20
341.291541
 30
0.0
 10
302.083328
 20
338.925153
 30
0.0
 10
298.838750
 20
338.039544
 30
0.0
 10
295.594172
 20
338.925153
 30
0.0
 10
293.225004
 20
341.291541
 30
0.0
 10
292.339649
 20
344.543505
 30
0.0
 10
293.224878
 20
347.761544
 30
0.0
 10
295.594054
 20
350.228754
 30
0.0
 10
297.747124
 20
350.567170
 30
0.0
 10
298.838750
 20
350.738750
 30
0.0
 11
298.838750
 21
350.738750
 31
0.0
 11
301.964259
 21
349.890185
 31
0.0
 11
304.191157
 21
347.663565
 31
0.0
 11
305.040000
 21
344.537500
 31
0.0
 11
304.191157
 21
341.412315
 31
0.0
 11
301.964259
 21
339.186019
 31
0.0
 11
298.838750
 21
338.337500
 31
0.0
 11
295.713241
 21
339.186019
 31
0.0
 11
293.486343
 21
341.412315
 31
0.0
 11
292.637500
 21
344.537500
 31
0.0
 11
293.486343
 21
347.663565
 31
0.0
 11
295.713241
 21
349.890185
 31
0.0
 11
298.838750
 21
350.738750
 31
0.0
  0
LWPOLYLINE
  5
115
100
AcDbEntity
  8
ink_ext_XXXXXX
 62
1
100
AcDbPolyline
 90
2
 70
1
 10
298.838750
 20
350.738750
 30
0.0
 10
298.838750
 20
350.738750
 30
0.0
  0
SPLINE
  5
116
100
AcDbEntity
  8
ink_ext_XXXXXX
 62
1
100
AcDbSpline
 70
0
 71
3
 72
19
 73
15
 74
13
 40
0.000000
 40
0.000000
 40
0.000000
 40
0.000000
 40
7.402516
 40
14.599979
 40
22.002723
 40
29.404618
 40
36.601852
 40
44.004357
 40
51.407173
 40
58.604833
 40
66.006813
 40
73.409642
 40
80.607531
 40
88.010360
 40
88.010360
 40
88.010360
 40
88.010360
 10
298.838750
 20
358.711250
 30
0.0
 10
301.333869
 20
358.318976
 30
0.0
 10
306.254992
 20
357.545294
 30
0.0
 10
311.668966
 20
351.905601
 30
0.0
 10
313.691847
 20
344.550873
 30
0.0
 10
311.668839
 20
337.118421
 30
0.0
 10
306.254877
 20
331.708527
 30
0.0
 10
298.838630
 20
329.683775
 30
0.0
 10
291.422326
 20
331.708604
 30
0.0
 10
286.007791
 20
337.118232
 30
0.0
 10
283.984226
 20
344.550873
 30
0.0
 10
286.007666
 20
351.905787
 30
0.0
 10
291.422204
 20
357.545236
 30
0.0
 10
296.343542
 20
358.318958
 30
0.0
 10
298.838750
 20
358.711250
 30
0.0
 11
298.838750
 21
358.711250
 31
0.0
 11
305.982546
 21
356.771296
 31
0.0
 11
311.071620
 21
351.681620
 31
0.0
 11
313.011250
 21
344.537500
 31
0.0
 11
311.071620
 21
337.394259
 31
0.0
 11
305.982546
 21
332.304907
 31
0.0
 11
298.838750
 21
330.365000
 31
0.0
 11
291.694630
 21
332.304907
 31
0.0
 11
286.604954
 21
337.394259
 31
0.0
 11
284.665000
 21
344.537500
 31
0.0
 11
286.604954
 21
351.681620
 31
0.0
 11
291.694630
 21
356.771296
 31
0.0
 11
298.838750
 21
358.711250
 31
0.0
  0
LWPOLYLINE
  5
117
100
AcDbEntity
  8
ink_ext_XXXXXX
 62
1
100
AcDbPolyline
 90
2
 70
1
 10
298.838750
 20
358.711250
 30
0.0
 10
298.838750
 20
358.711250
 30
0.0
  0
SPLINE
  5
118
100
AcDbEntity
  8
ink_ext_XXXXXX
 62
1
100
AcDbSpline
 70
0
 71
3
 72
19
 73
15
 74
13
 40
0.000000
 40
0.000000
 40
0.000000
 40
0.000000
 40
3.238653
 40
6.387766
 40
9.627027
 40
12.865440
 40
16.014324
 40
19.252964
 40
22.491605
 40
25.640489
 40
28.878901
 40
32.118163
 40
35.267276
 40
38.505928
 40
38.505928
 40
38.505928
 40
38.505928
 10
298.838750
 20
294.046250
 30
0.0
 10
299.930376
 20
293.874670
 30
0.0
 10
302.083446
 20
293.536254
 30
0.0
 10
304.452622
 20
291.069044
 30
0.0
 10
305.337851
 20
287.851005
 30
0.0
 10
304.452496
 20
284.599041
 30
0.0
 10
302.083328
 20
282.232653
 30
0.0
 10
298.838750
 20
281.347044
 30
0.0
 10
295.594172
 20
282.232653
 30
0.0
 10
293.225004
 20
284.599041
 30
0.0
 10
292.339649
 20
287.851005
 30
0.0
 10
293.224878
 20
291.069044
 30
0.0
 10
295.594054
 20
293.536254
 30
0.0
 10
297.747124
 20
293.874670
 30
0.0
 10
298.838750
 20
294.046250
 30
0.0
 11
298.838750
 21
294.046250
 31
0.0
 11
301.964259
 21
293.197685
 31
0.0
 11
304.191157
 21
290.971065
 31
0.0
 11
305.040000
 21
287.845000
 31
0.0
 11
304.191157
 21
284.719815
 31
0.0
 11
301.964259
 21
282.493519
 31
0.0
 11
298.838750
 21
281.645000
 31
0.0
 11
295.713241
 21
282.493519
 31
0.0
 11
293.486343
 21
284.719815
 31
0.0
 11
292.637500
 21
287.845000
 31
0.0
 11
293.486343
 21
290.971065
 31
0.0
 11
295.713241
 21
293.197685
 31
0.0
 11
298.838750
 21
294.046250
 31
0.0
  0
LWPOLYLINE
  5
119
100
AcDbEntity
  8
ink_ext_XXXXXX
 62
1
100
AcDbPolyline
 90
2
 70
1
 10
298.838750
 20
294.046250
 30
0.0
 10
298.838750
 20
294.046250
 30
0.0
  0
SPLINE
  5
11a
100
AcDbEntity
  8
ink_ext_XXXXXX
 62
1
100
AcDbSpline
 70
0
 71
3
 72
19
 73
15
 74
13
 40
0.000000
 40
0.000000
 40
0.000000
 40
0.000000
 40
7.402516
 40
14.599979
 40
22.002723
 40
29.405155
 40
36.602192
 40
44.004623
 40
51.407367
 40
58.604831
 40
66.007347
 40
73.410176
 40
80.608064
 40
88.010893
 40
88.010893
 40
88.010893
 40
88.010893
 10
298.838750
 20
302.018750
 30
0.0
 10
301.333867
 20
301.626476
 30
0.0
 10
306.254985
 20
300.852795
 30
0.0
 10
311.668991
 20
295.213095
 30
0.0
 10
313.691799
 20
287.858218
 30
0.0
 10
311.669067
 20
280.425535
 30
0.0
 10
306.254801
 20
275.015677
 30
0.0
 10
298.838630
 20
272.991447
 30
0.0
 10
291.422403
 20
275.015753
 30
0.0
 10
286.007563
 20
280.425346
 30
0.0
 10
283.984274
 20
287.858218
 30
0.0
 10
286.007641
 20
295.213281
 30
0.0
 10
291.422211
 20
300.852737
 30
0.0
 10
296.343544
 20
301.626459
 30
0.0
 10
298.838750
 20
302.018750
 30
0.0
 11
298.838750
 21
302.018750
 31
0.0
 11
305.982546
 21
300.078796
 31
0.0
 11
311.071620
 21
294.989120
 31
0.0
 11
313.011250
 21
287.845000
 31
0.0
 11
311.071620
 21
280.701204
 31
0.0
 11
305.982546
 21
275.612130
 31
0.0
 11
298.838750
 21
273.672500
 31
0.0
 11
291.694630
 21
275.612130
 31
0.0
 11
286.604954
 21
280.701204
 31
0.0
 11
284.665000
 21
287.845000
 31
0.0
 11
286.604954
 21
294.989120
 31
0.0
 11
291.694630
 21
300.078796
 31
0.0
 11
298.838750
 21
302.018750
 31
0.0
  0
LWPOLYLINE
  5
11b
100
AcDbEntity
  8
ink_ext_XXXXXX
 62
1
100
AcDbPolyline
 90
2
 70
1
 10
298.838750
 20
302.018750
 30
0.0
 10
298.838750
 20
302.018750
 30
0.0
  0
SPLINE
  5
11c
100
AcDbEntity
  8
ink_ext_XXXXXX
 62
1
100
AcDbSpline
 70
0
 71
3
 72
19
 73
15
 74
13
 40
0.000000
 40
0.000000
 40
0.000000
 40
0.000000
 40
3.238725
 40
6.388035
 40
9.626760
 40
12.865486
 40
16.014795
 40
19.253521
 40
22.492246
 40
25.641555
 40
28.880281
 40
32.119006
 40
35.268316
 40
38.507041
 40
38.507041
 40
38.507041
 40
38.507041
 10
298.838750
 20
265.700000
 30
0.0
 10
299.930387
 20
265.528320
 30
0.0
 10
302.083522
 20
265.189701
 30
0.0
 10
304.452398
 20
262.722404
 30
0.0
 10
305.337913
 20
259.504482
 30
0.0
 10
304.452398
 20
256.252483
 30
0.0
 10
302.083522
 20
253.885537
 30
0.0
 10
298.838750
 20
252.999366
 30
0.0
 10
295.593978
 20
253.885537
 30
0.0
 10
293.225102
 20
256.252483
 30
0.0
 10
292.339587
 20
259.504482
 30
0.0
 10
293.225102
 20
262.722404
 30
0.0
 10
295.593978
 20
265.189701
 30
0.0
 10
297.747113
 20
265.528320
 30
0.0
 10
298.838750
 20
265.700000
 30
0.0
 11
298.838750
 21
265.700000
 31
0.0
 11
301.964259
 21
264.851157
 31
0.0
 11
304.191157
 21
262.624259
 31
0.0
 11
305.040000
 21
259.498750
 31
0.0
 11
304.191157
 21
256.373241
 31
0.0
 11
301.964259
 21
254.146343
 31
0.0
 11
298.838750
 21
253.297500
 31
0.0
 11
295.713241
 21
254.146343
 31
0.0
 11
293.486343
 21
256.373241
 31
0.0
 11
292.637500
 21
259.498750
 31
0.0
 11
293.486343
 21
262.624259
 31
0.0
 11
295.713241
 21
264.851157
 31
0.0
 11
298.838750
 21
265.700000
 31
0.0
  0
LWPOLYLINE
  5
11d
100
AcDbEntity
  8
ink_ext_XXXXXX
 62
1
100
AcDbPolyline
 90
2
 70
1
 10
298.838750
 20
265.700000
 30
0.0
 10
298.838750
 20
265.700000
 30
0.0
  0
SPLINE
  5
11e
100
AcDbEntity
  8
ink_ext_XXXXXX
 62
1
100
AcDbSpline
 70
0
 71
3
 72
19
 73
15
 74
13
 40
0.000000
 40
0.000000
 40
0.000000
 40
0.000000
 40
7.402516
 40
14.599979
 40
22.002723
 40
29.405155
 40
36.602192
 40
44.004623
 40
51.407367
 40
58.604831
 40
66.007347
 40
73.410176
 40
80.608064
 40
88.010893
 40
88.010893
 40
88.010893
 40
88.010893
 10
298.838750
 20
273.672500
 30
0.0
 10
301.333867
 20
273.280226
 30
0.0
 10
306.254985
 20
272.506545
 30
0.0
 10
311.668991
 20
266.866845
 30
0.0
 10
313.691799
 20
259.511968
 30
0.0
 10
311.669067
 20
252.079285
 30
0.0
 10
306.254801
 20
246.669427
 30
0.0
 10
298.838630
 20
244.645197
 30
0.0
 10
291.422403
 20
246.669503
 30
0.0
 10
286.007563
 20
252.079096
 30
0.0
 10
283.984274
 20
259.511968
 30
0.0
 10
286.007641
 20
266.867031
 30
0.0
 10
291.422211
 20
272.506487
 30
0.0
 10
296.343544
 20
273.280209
 30
0.0
 10
298.838750
 20
273.672500
 30
0.0
 11
298.838750
 21
273.672500
 31
0.0
 11
305.982546
 21
271.732546
 31
0.0
 11
311.071620
 21
266.642870
 31
0.0
 11
313.011250
 21
259.498750
 31
0.0
 11
311.071620
 21
252.354954
 31
0.0
 11
305.982546
 21
247.265880
 31
0.0
 11
298.838750
 21
245.326250
 31
0.0
 11
291.694630
 21
247.265880
 31
0.0
 11
286.604954
 21
252.354954
 31
0.0
 11
284.665000
 21
259.498750
 31
0.0
 11
286.604954
 21
266.642870
 31
0.0
 11
291.694630
 21
271.732546
 31
0.0
 11
298.838750
 21
273.672500
 31
0.0
  0
LWPOLYLINE
  5
11f
100
AcDbEntity
  8
ink_ext_XXXXXX
 62
1
100
AcDbPolyline
 90
2
 70
1
 10
298.838750
 20
273.672500
 30
0.0
 10
298.838750
 20
273.672500
 30
0.0
  0
SPLINE
  5
120
100
AcDbEntity
  8
ink_ext_XXXXXX
 62
1
100
AcDbSpline
 70
0
 71
3
 72
19
 73
15
 74
13
 40
0.000000
 40
0.000000
 40
0.000000
 40
0.000000
 40
3.238328
 40
6.386786
 40
9.625114
 40
12.864290
 40
16.012978
 40
19.251318
 40
22.490506
 40
25.639423
 40
28.878612
 40
32.116952
 40
35.265639
 40
38.504816
 40
38.504816
 40
38.504816
 40
38.504816
 10
270.492500
 20
322.392500
 30
0.0
 10
271.584022
 20
322.220942
 30
0.0
 10
273.736774
 20
321.882586
 30
0.0
 10
276.105378
 20
319.415678
 30
0.0
 10
276.990173
 20
316.197952
 30
0.0
 10
276.105505
 20
312.946047
 30
0.0
 10
273.736890
 20
310.578837
 30
0.0
 10
270.492224
 20
309.693351
 30
0.0
 10
267.247421
 20
310.578711
 30
0.0
 10
264.878276
 20
312.945928
 30
0.0
 10
263.993571
 20
316.197952
 30
0.0
 10
264.878402
 20
319.415793
 30
0.0
 10
267.247542
 20
321.882737
 30
0.0
 10
269.400681
 20
322.220982
 30
0.0
 10
270.492500
 20
322.392500
 30
0.0
 11
270.492500
 21
322.392500
 31
0.0
 11
273.617685
 21
321.543981
 31
0.0
 11
275.843981
 21
319.317685
 31
0.0
 11
276.692500
 21
316.192500
 31
0.0
 11
275.843981
 21
313.066435
 31
0.0
 11
273.617685
 21
310.839815
 31
0.0
 11
270.492500
 21
309.991250
 31
0.0
 11
267.366435
 21
310.839815
 31
0.0
 11
265.139815
 21
313.066435
 31
0.0
 11
264.291250
 21
316.192500
 31
0.0
 11
265.139815
 21
319.317685
 31
0.0
 11
267.366435
 21
321.543981
 31
0.0
 11
270.492500
 21
322.392500
 31
0.0
  0
LWPOLYLINE
  5
121
100
AcDbEntity
  8
ink_ext_XXXXXX
 62
1
100
AcDbPolyline
 90
2
 70
1
 10
270.492500
 20
322.392500
 30
0.0
 10
270.492500
 20
322.392500
 30
0.0
  0
SPLINE
  5
122
100
AcDbEntity
  8
ink_ext_XXXXXX
 62
1
100
AcDbSpline
 70
0
 71
3
 72
19
 73
15
 74
13
 40
0.000000
 40
0.000000
 40
0.000000
 40
0.000000
 40
7.402504
 40
14.599738
 40
22.001633
 40
29.404913
 40
36.602180
 40
44.004623
 40
51.407380
 40
58.605072
 40
66.008437
 40
73.410417
 40
80.608077
 40
88.010893
 40
88.010893
 40
88.010893
 40
88.010893
 10
270.492500
 20
330.365000
 30
0.0
 10
272.987602
 20
329.972731
 30
0.0
 10
277.908617
 20
329.199070
 30
0.0
 10
283.322615
 20
323.559914
 30
0.0
 10
285.345549
 20
316.205166
 30
0.0
 10
283.322943
 20
308.772346
 30
0.0
 10
277.908669
 20
303.361958
 30
0.0
 10
270.492380
 20
301.337691
 30
0.0
 10
263.076035
 20
303.362035
 30
0.0
 10
257.661187
 20
308.772157
 30
0.0
 10
255.638023
 20
316.205167
 30
0.0
 10
257.661517
 20
323.560099
 30
0.0
 10
263.076079
 20
329.199012
 30
0.0
 10
267.997310
 20
329.972713
 30
0.0
 10
270.492500
 20
330.365000
 30
0.0
 11
270.492500
 21
330.365000
 31
0.0
 11
277.636296
 21
328.425093
 31
0.0
 11
282.725370
 21
323.335741
 31
0.0
 11
284.665000
 21
316.192500
 31
0.0
 11
282.725370
 21
309.047824
 31
0.0
 11
277.636296
 21
303.958426
 31
0.0
 11
270.492500
 21
302.018750
 31
0.0
 11
263.348380
 21
303.958426
 31
0.0
 11
258.258704
 21
309.047824
 31
0.0
 11
256.318750
 21
316.192500
 31
0.0
 11
258.258704
 21
323.335741
 31
0.0
 11
263.348380
 21
328.425093
 31
0.0
 11
270.492500
 21
330.365000
 31
0.0
  0
LWPOLYLINE
  5
123
100
AcDbEntity
  8
ink_ext_XXXXXX
 62
1
100
AcDbPolyline
 90
2
 70
1
 10
270.492500
 20
330.365000
 30
0.0
 10
270.492500
 20
330.365000
 30
0.0
  0
SPLINE
  5
124
100
AcDbEntity
  8
ink_ext_XXXXXX
 62
1
100
AcDbSpline
 70
0
 71
3
 72
19
 73
15
 74
13
 40
0.000000
 40
0.000000
 40
0.000000
 40
0.000000
 40
3.238340
 40
6.387027
 40
9.626204
 40
12.864532
 40
16.012990
 40
19.251318
 40
22.490494
 40
25.639182
 40
28.877522
 40
32.116710
 40
35.265627
 40
38.504816
 40
38.504816
 40
38.504816
 40
38.504816
 10
270.492500
 20
350.738750
 30
0.0
 10
271.584037
 20
350.567187
 30
0.0
 10
273.736892
 20
350.228811
 30
0.0
 10
276.105505
 20
347.761359
 30
0.0
 10
276.990173
 20
344.543503
 30
0.0
 10
276.105379
 20
341.291736
 30
0.0
 10
273.736771
 20
338.925055
 30
0.0
 10
270.492224
 20
338.039607
 30
0.0
 10
267.247540
 20
338.924929
 30
0.0
 10
264.878403
 20
341.291617
 30
0.0
 10
263.993571
 20
344.543504
 30
0.0
 10
264.878276
 20
347.761474
 30
0.0
 10
267.247424
 20
350.228962
 30
0.0
 10
269.400665
 20
350.567227
 30
0.0
 10
270.492500
 20
350.738750
 30
0.0
 11
270.492500
 21
350.738750
 31
0.0
 11
273.617685
 21
349.890185
 31
0.0
 11
275.843981
 21
347.663565
 31
0.0
 11
276.692500
 21
344.537500
 31
0.0
 11
275.843981
 21
341.412315
 31
0.0
 11
273.617685
 21
339.186019
 31
0.0
 11
270.492500
 21
338.337500
 31
0.0
 11
267.366435
 21
339.186019
 31
0.0
 11
265.139815
 21
341.412315
 31
0.0
 11
264.291250
 21
344.537500
 31
0.0
 11
265.139815
 21
347.663565
 31
0.0
 11
267.366435
 21
349.890185
 31
0.0
 11
270.492500
 21
350.738750
 31
0.0
  0
LWPOLYLINE
  5
125
100
AcDbEntity
  8
ink_ext_XXXXXX
 62
1
100
AcDbPolyline
 90
2
 70
1
 10
270.492500
 20
350.738750
 30
0.0
 10
270.492500
 20
350.738750
 30
0.0
  0
SPLINE
  5
126
100
AcDbEntity
  8
ink_ext_XXXXXX
 62
1
100
AcDbSpline
 70
0
 71
3
 72
19
 73
15
 74
13
 40
0.000000
 40
0.000000
 40
0.000000
 40
0.000000
 40
7.402516
 40
14.599979
 40
22.002723
 40
29.404618
 40
36.601852
 40
44.004357
 40
51.407173
 40
58.604833
 40
66.006813
 40
73.409642
 40
80.607531
 40
88.010360
 40
88.010360
 40
88.010360
 40
88.010360
 10
270.492500
 20
358.711250
 30
0.0
 10
272.987619
 20
358.318976
 30
0.0
 10
277.908742
 20
357.545294
 30
0.0
 10
283.322716
 20
351.905601
 30
0.0
 10
285.345597
 20
344.550873
 30
0.0
 10
283.322589
 20
337.118421
 30
0.0
 10
277.908627
 20
331.708527
 30
0.0
 10
270.492380
 20
329.683775
 30
0.0
 10
263.076076
 20
331.708604
 30
0.0
 10
257.661541
 20
337.118232
 30
0.0
 10
255.637976
 20
344.550873
 30
0.0
 10
257.661416
 20
351.905787
 30
0.0
 10
263.075954
 20
357.545236
 30
0.0
 10
267.997292
 20
358.318958
 30
0.0
 10
270.492500
 20
358.711250
 30
0.0
 11
270.492500
 21
358.711250
 31
0.0
 11
277.636296
 21
356.771296
 31
0.0
 11
282.725370
 21
351.681620
 31
0.0
 11
284.665000
 21
344.537500
 31
0.0
 11
282.725370
 21
337.394259
 31
0.0
 11
277.636296
 21
332.304907
 31
0.0
 11
270.492500
 21
330.365000
 31
0.0
 11
263.348380
 21
332.304907
 31
0.0
 11
258.258704
 21
337.394259
 31
0.0
 11
256.318750
 21
344.537500
 31
0.0
 11
258.258704
 21
351.681620
 31
0.0
 11
263.348380
 21
356.771296
 31
0.0
 11
270.492500
 21
358.711250
 31
0.0
  0
LWPOLYLINE
  5
127
100
AcDbEntity
  8
ink_ext_XXXXXX
 62
1
100
AcDbPolyline
 90
2
 70
1
 10
270.492500
 20
358.711250
 30
0.0
 10
270.492500
 20
358.711250
 30
0.0
  0
SPLINE
  5
128
100
AcDbEntity
  8
ink_ext_XXXXXX
 62
1
100
AcDbSpline
 70
0
 71
3
 72
19
 73
15
 74
13
 40
0.000000
 40
0.000000
 40
0.000000
 40
0.000000
 40
3.238340
 40
6.387027
 40
9.626204
 40
12.864532
 40
16.012990
 40
19.251318
 40
22.490494
 40
25.639182
 40
28.877522
 40
32.116710
 40
35.265627
 40
38.504816
 40
38.504816
 40
38.504816
 40
38.504816
 10
270.492500
 20
294.046250
 30
0.0
 10
271.584037
 20
293.874687
 30
0.0
 10
273.736892
 20
293.536311
 30
0.0
 10
276.105505
 20
291.068859
 30
0.0
 10
276.990173
 20
287.851003
 30
0.0
 10
276.105379
 20
284.599236
 30
0.0
 10
273.736771
 20
282.232555
 30
0.0
 10
270.492224
 20
281.347107
 30
0.0
 10
267.247540
 20
282.232429
 30
0.0
 10
264.878403
 20
284.599117
 30
0.0
 10
263.993571
 20
287.851004
 30
0.0
 10
264.878276
 20
291.068974
 30
0.0
 10
267.247424
 20
293.536462
 30
0.0
 10
269.400665
 20
293.874727
 30
0.0
 10
270.492500
 20
294.046250
 30
0.0
 11
270.492500
 21
294.046250
 31
0.0
 11
273.617685
 21
293.197685
 31
0.0
 11
275.843981
 21
290.971065
 31
0.0
 11
276.692500
 21
287.845000
 31
0.0
 11
275.843981
 21
284.719815
 31
0.0
 11
273.617685
 21
282.493519
 31
0.0
 11
270.492500
 21
281.645000
 31
0.0
 11
267.366435
 21
282.493519
 31
0.0
 11
265.139815
 21
284.719815
 31
0.0
 11
264.291250
 21
287.845000
 31
0.0
 11
265.139815
 21
290.971065
 31
0.0
 11
267.366435
 21
293.197685
 31
0.0
 11
270.492500
 21
294.046250
 31
0.0
  0
LWPOLYLINE
  5
129
100
AcDbEntity
  8
ink_ext_XXXXXX
 62
1
100
AcDbPolyline
 90
2
 70
1
 10
270.492500
 20
294.046250
 30
0.0
 10
270.492500
 20
294.046250
 30
0.0
  0
SPLINE
  5
12a
100
AcDbEntity
  8
ink_ext_XXXXXX
 62
1
100
AcDbSpline
 70
0
 71
3
 72
19
 73
15
 74
13
 40
0.000000
 40
0.000000
 40
0.000000
 40
0.000000
 40
7.402516
 40
14.599979
 40
22.002723
 40
29.405155
 40
36.602192
 40
44.004623
 40
51.407367
 40
58.604831
 40
66.007347
 40
73.410176
 40
80.608064
 40
88.010893
 40
88.010893
 40
88.010893
 40
88.010893
 10
270.492500
 20
302.018750
 30
0.0
 10
272.987617
 20
301.626476
 30
0.0
 10
277.908735
 20
300.852795
 30
0.0
 10
283.322741
 20
295.213095
 30
0.0
 10
285.345549
 20
287.858218
 30
0.0
 10
283.322817
 20
280.425535
 30
0.0
 10
277.908551
 20
275.015677
 30
0.0
 10
270.492380
 20
272.991447
 30
0.0
 10
263.076153
 20
275.015753
 30
0.0
 10
257.661313
 20
280.425346
 30
0.0
 10
255.638024
 20
287.858218
 30
0.0
 10
257.661391
 20
295.213281
 30
0.0
 10
263.075961
 20
300.852737
 30
0.0
 10
267.997294
 20
301.626459
 30
0.0
 10
270.492500
 20
302.018750
 30
0.0
 11
270.492500
 21
302.018750
 31
0.0
 11
277.636296
 21
300.078796
 31
0.0
 11
282.725370
 21
294.989120
 31
0.0
 11
284.665000
 21
287.845000
 31
0.0
 11
282.725370
 21
280.701204
 31
0.0
 11
277.636296
 21
275.612130
 31
0.0
 11
270.492500
 21
273.672500
 31
0.0
 11
263.348380
 21
275.612130
 31
0.0
 11
258.258704
 21
280.701204
 31
0.0
 11
256.318750
 21
287.845000
 31
0.0
 11
258.258704
 21
294.989120
 31
0.0
 11
263.348380
 21
300.078796
 31
0.0
 11
270.492500
 21
302.018750
 31
0.0
  0
LWPOLYLINE
  5
12b
100
AcDbEntity
  8
ink_ext_XXXXXX
 62
1
100
AcDbPolyline
 90
2
 70
1
 10
270.492500
 20
302.018750
 30
0.0
 10
270.492500
 20
302.018750
 30
0.0
  0
SPLINE
  5
12c
100
AcDbEntity
  8
ink_ext_XXXXXX
 62
1
100
AcDbSpline
 70
0
 71
3
 72
19
 73
15
 74
13
 40
0.000000
 40
0.000000
 40
0.000000
 40
0.000000
 40
3.238413
 40
6.387297
 40
9.625937
 40
12.864577
 40
16.013461
 40
19.251874
 40
22.491136
 40
25.640249
 40
28.878901
 40
32.117554
 40
35.266667
 40
38.505928
 40
38.505928
 40
38.505928
 40
38.505928
 10
270.492500
 20
265.700000
 30
0.0
 10
271.584048
 20
265.528338
 30
0.0
 10
273.736968
 20
265.189759
 30
0.0
 10
276.105280
 20
262.722219
 30
0.0
 10
276.990235
 20
259.504480
 30
0.0
 10
276.105281
 20
256.252678
 30
0.0
 10
273.736965
 20
253.885439
 30
0.0
 10
270.492224
 20
252.999428
 30
0.0
 10
267.247346
 20
253.885312
 30
0.0
 10
264.878501
 20
256.252559
 30
0.0
 10
263.993509
 20
259.504481
 30
0.0
 10
264.878500
 20
262.722334
 30
0.0
 10
267.247348
 20
265.189910
 30
0.0
 10
269.400654
 20
265.528378
 30
0.0
 10
270.492500
 20
265.700000
 30
0.0
 11
270.492500
 21
265.700000
 31
0.0
 11
273.617685
 21
264.851157
 31
0.0
 11
275.843981
 21
262.624259
 31
0.0
 11
276.692500
 21
259.498750
 31
0.0
 11
275.843981
 21
256.373241
 31
0.0
 11
273.617685
 21
254.146343
 31
0.0
 11
270.492500
 21
253.297500
 31
0.0
 11
267.366435
 21
254.146343
 31
0.0
 11
265.139815
 21
256.373241
 31
0.0
 11
264.291250
 21
259.498750
 31
0.0
 11
265.139815
 21
262.624259
 31
0.0
 11
267.366435
 21
264.851157
 31
0.0
 11
270.492500
 21
265.700000
 31
0.0
  0
LWPOLYLINE
  5
12d
100
AcDbEntity
  8
ink_ext_XXXXXX
 62
1
100
AcDbPolyline
 90
2
 70
1
 10
270.492500
 20
265.700000
 30
0.0
 10
270.492500
 20
265.700000
 30
0.0
  0
SPLINE
  5
12e
100
AcDbEntity
  8
ink_ext_XXXXXX
 62
1
100
AcDbSpline
 70
0
 71
3
 72
19
 73
15
 74
13
 40
0.000000
 40
0.000000
 40
0.000000
 40
0.000000
 40
7.402516
 40
14.599979
 40
22.002723
 40
29.405155
 40
36.602192
 40
44.004623
 40
51.407367
 40
58.604831
 40
66.007347
 40
73.410176
 40
80.608064
 40
88.010893
 40
88.010893
 40
88.010893
 40
88.010893
 10
270.492500
 20
273.672500
 30
0.0
 10
272.987617
 20
273.280226
 30
0.0
 10
277.908735
 20
272.506545
 30
0.0
 10
283.322741
 20
266.866845
 30
0.0
 10
285.345549
 20
259.511968
 30
0.0
 10
283.322817
 20
252.079285
 30
0.0
 10
277.908551
 20
246.669427
 30
0.0
 10
270.492380
 20
244.645197
 30
0.0
 10
263.076153
 20
246.669503
 30
0.0
 10
257.661313
 20
252.079096
 30
0.0
 10
255.638024
 20
259.511968
 30
0.0
 10
257.661391
 20
266.867031
 30
0.0
 10
263.075961
 20
272.506487
 30
0.0
 10
267.997294
 20
273.280209
 30
0.0
 10
270.492500
 20
273.672500
 30
0.0
 11
270.492500
 21
273.672500
 31
0.0
 11
277.636296
 21
271.732546
 31
0.0
 11
282.725370
 21
266.642870
 31
0.0
 11
284.665000
 21
259.498750
 31
0.0
 11
282.725370
 21
252.354954
 31
0.0
 11
277.636296
 21
247.265880
 31
0.0
 11
270.492500
 21
245.326250
 31
0.0
 11
263.348380
 21
247.265880
 31
0.0
 11
258.258704
 21
252.354954
 31
0.0
 11
256.318750
 21
259.498750
 31
0.0
 11
258.258704
 21
266.642870
 31
0.0
 11
263.348380
 21
271.732546
 31
0.0
 11
270.492500
 21
273.672500
 31
0.0
  0
LWPOLYLINE
  5
12f
100
AcDbEntity
  8
ink_ext_XXXXXX
 62
1
100
AcDbPolyline
 90
2
 70
1
 10
270.492500
 20
273.672500
 30
0.0
 10
270.492500
 20
273.672500
 30
0.0
  0
SPLINE
  5
130
100
AcDbEntity
  8
ink_ext_XXXXXX
 62
1
100
AcDbSpline
 70
0
 71
3
 72
13
 73
9
 74
7
 40
0.000000
 40
0.000000
 40
0.000000
 40
0.000000
 40
135.688713
 40
244.062204
 40
396.850250
 40
406.103547
 40
415.100347
 40
424.353456
 40
424.353456
 40
424.353456
 40
424.353456
 10
355.531250
 20
417.175000
 30
0.0
 10
355.773177
 20
371.953140
 30
0.0
 10
356.208329
 20
290.612941
 30
0.0
 10
353.097813
 20
158.230387
 30
0.0
 10
363.517370
 20
68.424196
 30
0.0
 10
354.060068
 20
11.110063
 30
0.0
 10
347.032410
 20
4.066881
 30
0.0
 10
340.916103
 20
3.099091
 30
0.0
 10
337.815000
 20
2.608400
 30
0.0
 11
355.531250
 21
417.175000
 31
0.0
 11
355.531250
 21
281.486287
 31
0.0
 11
355.531250
 21
173.112796
 31
0.0
 11
355.531250
 21
20.324750
 31
0.0
 11
353.106481
 21
11.394800
 31
0.0
 11
346.744769
 21
5.033117
 31
0.0
 11
337.815000
 21
2.608400
 31
0.0
  0
LWPOLYLINE
  5
131
100
AcDbEntity
  8
ink_ext_XXXXXX
 62
1
100
AcDbPolyline
 90
2
 70
1
 10
337.815000
 20
2.608400
 30
0.0
 10
231.516250
 20
2.608400
 30
0.0
  0
SPLINE
  5
132
100
AcDbEntity
  8
ink_ext_XXXXXX
 62
1
100
AcDbSpline
 70
0
 71
3
 72
10
 73
6
 74
4
 40
0.000000
 40
0.000000
 40
0.000000
 40
0.000000
 40
9.253957
 40
18.250986
 40
27.504296
 40
27.504296
 40
27.504296
 40
27.504296
 10
231.516250
 20
2.608400
 30
0.0
 10
228.415951
 20
3.099016
 30
0.0
 10
222.301431
 20
4.066626
 30
0.0
 10
215.257155
 20
11.110356
 30
0.0
 10
214.289415
 20
17.224665
 30
0.0
 10
213.798750
 20
20.324750
 30
0.0
 11
231.516250
 21
2.608400
 31
0.0
 11
222.585602
 21
5.033117
 31
0.0
 11
216.223565
 21
11.394800
 31
0.0
 11
213.798750
 21
20.324750
 31
0.0
  0
LWPOLYLINE
  5
133
100
AcDbEntity
  8
ink_ext_XXXXXX
 62
1
100
AcDbPolyline
 90
2
 70
1
 10
213.798750
 20
20.324750
 30
0.0
 10
213.798750
 20
417.175000
 30
0.0
  0
SPLINE
  5
134
100
AcDbEntity
  8
ink_ext_XXXXXX
 62
1
100
AcDbSpline
 70
0
 71
3
 72
10
 73
6
 74
4
 40
0.000000
 40
0.000000
 40
0.000000
 40
0.000000
 40
9.253134
 40
18.250184
 40
27.504155
 40
27.504155
 40
27.504155
 40
27.504155
 10
213.798750
 20
417.175000
 30
0.0
 10
214.289430
 20
420.275019
 30
0.0
 10
215.257209
 20
426.389263
 30
0.0
 10
222.301426
 20
433.432965
 30
0.0
 10
228.415950
 20
434.400614
 30
0.0
 10
231.516250
 20
434.891250
 30
0.0
 11
213.798750
 21
417.175000
 31
0.0
 11
216.223565
 21
426.104769
 31
0.0
 11
222.585602
 21
432.466481
 31
0.0
 11
231.516250
 21
434.891250
 31
0.0
  0
LWPOLYLINE
  5
135
100
AcDbEntity
  8
ink_ext_XXXXXX
 62
1
100
AcDbPolyline
 90
2
 70
1
 10
231.516250
 20
434.891250
 30
0.0
 10
337.815000
 20
434.891250
 30
0.0
  0
LWPOLYLINE
  5
136
100
AcDbEntity
  8
ink_ext_XXXXXX
 62
1
100
AcDbPolyline
 90
2
 70
1
 10
355.531250
 20
417.175000
 30
0.0
 10
355.531250
 20
417.175000
 30
0.0
  0
SPLINE
  5
137
100
AcDbEntity
  8
ink_ext_XXXXXX
 62
1
100
AcDbSpline
 70
0
 71
3
 72
10
 73
6
 74
4
 40
0.000000
 40
0.000000
 40
0.000000
 40
0.000000
 40
9.253122
 40
18.249943
 40
27.503065
 40
27.503065
 40
27.503065
 40
27.503065
 10
337.815000
 20
434.891250
 30
0.0
 10
340.915005
 20
434.400574
 30
0.0
 10
347.029147
 20
433.432814
 30
0.0
 10
354.072814
 20
426.389147
 30
0.0
 10
355.040574
 20
420.275005
 30
0.0
 10
355.531250
 20
417.175000
 30
0.0
 11
337.815000
 21
434.891250
 31
0.0
 11
346.744769
 21
432.466481
 31
0.0
 11
353.106481
 21
426.104769
 31
0.0
 11
355.531250
 21
417.175000
 31
0.0
  0
LWPOLYLINE
  5
138
100
AcDbEntity
  8
ink_ext_XXXXXX
 62
1
100
AcDbPolyline
 90
6
 70
1
 10
247.460000
 20
240.010000
 30
0.0
 10
321.869625
 20
240.010000
 30
0.0
 10
321.869625
 20
364.025625
 30
0.0
 10
247.460000
 20
364.025625
 30
0.0
 10
247.460000
 20
240.010000
 30
0.0
 10
247.460000
 20
240.010000
 30
0.0
  0
SPLINE
  5
139
100
AcDbEntity
  8
ink_ext_XXXXXX
 62
1
100
AcDbSpline
 70
0
 71
3
 72
19
 73
15
 74
13
 40
0.000000
 40
0.000000
 40
0.000000
 40
0.000000
 40
3.238725
 40
6.388035
 40
9.626760
 40
12.865173
 40
16.014057
 40
19.252697
 40
22.491338
 40
25.640222
 40
28.878634
 40
32.117360
 40
35.266669
 40
38.505395
 40
38.505395
 40
38.505395
 40
38.505395
 10
284.665000
 20
415.093750
 30
0.0
 10
285.756637
 20
414.922071
 30
0.0
 10
287.909773
 20
414.583452
 30
0.0
 10
290.278644
 20
412.116150
 30
0.0
 10
291.164149
 20
408.898352
 30
0.0
 10
290.278721
 20
405.646534
 30
0.0
 10
287.909584
 20
403.280156
 30
0.0
 10
284.665000
 20
402.394543
 30
0.0
 10
281.420416
 20
403.280156
 30
0.0
 10
279.051279
 20
405.646534
 30
0.0
 10
278.165851
 20
408.898352
 30
0.0
 10
279.051356
 20
412.116150
 30
0.0
 10
281.420227
 20
414.583452
 30
0.0
 10
283.573363
 20
414.922071
 30
0.0
 10
284.665000
 20
415.093750
 30
0.0
 11
284.665000
 21
415.093750
 31
0.0
 11
287.790509
 21
414.244907
 31
0.0
 11
290.017407
 21
412.018009
 31
0.0
 11
290.866250
 21
408.892500
 31
0.0
 11
290.017407
 21
405.767315
 31
0.0
 11
287.790509
 21
403.541019
 31
0.0
 11
284.665000
 21
402.692500
 31
0.0
 11
281.539491
 21
403.541019
 31
0.0
 11
279.312593
 21
405.767315
 31
0.0
 11
278.463750
 21
408.892500
 31
0.0
 11
279.312593
 21
412.018009
 31
0.0
 11
281.539491
 21
414.244907
 31
0.0
 11
284.665000
 21
415.093750
 31
0.0
  0
LWPOLYLINE
  5
13a
100
AcDbEntity
  8
ink_ext_XXXXXX
 62
1
100
AcDbPolyline
 90
2
 70
1
 10
284.665000
 20
415.093750
 30
0.0
 10
284.665000
 20
415.093750
 30
0.0
  0
LWPOLYLINE
  5
13b
100
AcDbEntity
  8
ink_ext_XXXXXX
 62
1
100
AcDbPolyline
 90
2
 70
1
 10
284.665000
 20
201.388750
 30
0.0
 10
284.665000
 20
201.388750
 30
0.0
  0
SPLINE
  5
13c
100
AcDbEntity
  8
ink_ext_XXXXXX
 62
1
100
AcDbSpline
 70
0
 71
3
 72
19
 73
15
 74
13
 40
0.000000
 40
0.000000
 40
0.000000
 40
0.000000
 40
3.238725
 40
6.388035
 40
9.626760
 40
12.865486
 40
16.014795
 40
19.253521
 40
22.492246
 40
25.641555
 40
28.880281
 40
32.119006
 40
35.268316
 40
38.507041
 40
38.507041
 40
38.507041
 40
38.507041
 10
284.665000
 20
201.388750
 30
0.0
 10
285.756637
 20
201.217070
 30
0.0
 10
287.909772
 20
200.878451
 30
0.0
 10
290.278648
 20
198.411154
 30
0.0
 10
291.164163
 20
195.193232
 30
0.0
 10
290.278648
 20
191.941233
 30
0.0
 10
287.909772
 20
189.574287
 30
0.0
 10
284.665000
 20
188.688116
 30
0.0
 10
281.420228
 20
189.574287
 30
0.0
 10
279.051352
 20
191.941233
 30
0.0
 10
278.165837
 20
195.193232
 30
0.0
 10
279.051352
 20
198.411154
 30
0.0
 10
281.420228
 20
200.878451
 30
0.0
 10
283.573363
 20
201.217070
 30
0.0
 10
284.665000
 20
201.388750
 30
0.0
 11
284.665000
 21
201.388750
 31
0.0
 11
287.790509
 21
200.539907
 31
0.0
 11
290.017407
 21
198.313009
 31
0.0
 11
290.866250
 21
195.187500
 31
0.0
 11
290.017407
 21
192.061991
 31
0.0
 11
287.790509
 21
189.835093
 31
0.0
 11
284.665000
 21
188.986250
 31
0.0
 11
281.539491
 21
189.835093
 31
0.0
 11
279.312593
 21
192.061991
 31
0.0
 11
278.463750
 21
195.187500
 31
0.0
 11
279.312593
 21
198.313009
 31
0.0
 11
281.539491
 21
200.539907
 31
0.0
 11
284.665000
 21
201.388750
 31
0.0
  0
LWPOLYLINE
  5
13d
100
AcDbEntity
  8
ink_ext_XXXXXX
 62
1
100
AcDbPolyline
 90
6
 70
1
 10
260.752500
 20
33.020000
 30
0.0
 10
308.587000
 20
33.020000
 30
0.0
 10
308.587000
 20
116.287625
 30
0.0
 10
260.752500
 20
116.287625
 30
0.0
 10
260.752500
 20
33.020000
 30
0.0
 10
260.752500
 20
33.020000
 30
0.0
  0
SPLINE
  5
13e
100
AcDbEntity
  8
ink_ext_XXXXXX
 62
1
100
AcDbSpline
 70
0
 71
3
 72
19
 73
15
 74
13
 40
0.000000
 40
0.000000
 40
0.000000
 40
0.000000
 40
2.776142
 40
5.475391
 40
8.250924
 40
11.027355
 40
13.726437
 40
16.502495
 40
19.278553
 40
21.977636
 40
24.754067
 40
27.529600
 40
30.228849
 40
33.004991
 40
33.004991
 40
33.004991
 40
33.004991
 10
284.670000
 20
131.790000
 30
0.0
 10
285.605723
 20
131.642826
 30
0.0
 10
287.451251
 20
131.352556
 30
0.0
 10
289.481429
 20
129.237691
 30
0.0
 10
290.240247
 20
126.479644
 30
0.0
 10
289.481710
 20
123.692252
 30
0.0
 10
287.451202
 20
121.663296
 30
0.0
 10
284.670000
 20
120.904249
 30
0.0
 10
281.888798
 20
121.663296
 30
0.0
 10
279.858290
 20
123.692252
 30
0.0
 10
279.099753
 20
126.479644
 30
0.0
 10
279.858571
 20
129.237691
 30
0.0
 10
281.888749
 20
131.352556
 30
0.0
 10
283.734277
 20
131.642826
 30
0.0
 10
284.670000
 20
131.790000
 30
0.0
 11
284.670000
 21
131.790000
 31
0.0
 11
287.349074
 21
131.062315
 31
0.0
 11
289.257593
 21
129.153519
 31
0.0
 11
289.985000
 21
126.475000
 31
0.0
 11
289.257593
 21
123.795551
 31
0.0
 11
287.349074
 21
121.886991
 31
0.0
 11
284.670000
 21
121.159625
 31
0.0
 11
281.990926
 21
121.886991
 31
0.0
 11
280.082407
 21
123.795551
 31
0.0
 11
279.355000
 21
126.475000
 31
0.0
 11
280.082407
 21
129.153519
 31
0.0
 11
281.990926
 21
131.062315
 31
0.0
 11
284.670000
 21
131.790000
 31
0.0
  0
LWPOLYLINE
  5
13f
100
AcDbEntity
  8
ink_ext_XXXXXX
 62
1
100
AcDbPolyline
 90
2
 70
1
 10
284.670000
 20
131.790000
 30
0.0
 10
284.670000
 20
131.790000
 30
0.0
  0
SPLINE
  5
140
100
AcDbEntity
  8
ink_ext_XXXXXX
 62
1
100
AcDbSpline
 70
0
 71
3
 72
19
 73
15
 74
13
 40
0.000000
 40
0.000000
 40
0.000000
 40
0.000000
 40
2.776084
 40
5.475176
 40
8.251138
 40
11.027408
 40
13.726549
 40
16.502629
 40
19.278709
 40
21.977850
 40
24.754120
 40
27.530082
 40
30.229174
 40
33.005258
 40
33.005258
 40
33.005258
 40
33.005258
 10
284.670000
 20
28.148000
 30
0.0
 10
285.605714
 20
28.000906
 30
0.0
 10
287.451191
 20
27.710797
 30
0.0
 10
289.481604
 20
25.596008
 30
0.0
 10
290.240223
 20
22.837813
 30
0.0
 10
289.481662
 20
20.050373
 30
0.0
 10
287.451220
 20
18.021399
 30
0.0
 10
284.670000
 20
17.262198
 30
0.0
 10
281.888780
 20
18.021399
 30
0.0
 10
279.858338
 20
20.050373
 30
0.0
 10
279.099777
 20
22.837813
 30
0.0
 10
279.858396
 20
25.596008
 30
0.0
 10
281.888809
 20
27.710797
 30
0.0
 10
283.734286
 20
28.000906
 30
0.0
 10
284.670000
 20
28.148000
 30
0.0
 11
284.670000
 21
28.148000
 31
0.0
 11
287.349074
 21
27.420537
 31
0.0
 11
289.257593
 21
25.511963
 31
0.0
 11
289.985000
 21
22.833000
 31
0.0
 11
289.257593
 21
20.153718
 31
0.0
 11
287.349074
 21
18.245074
 31
0.0
 11
284.670000
 21
17.517625
 31
0.0
 11
281.990926
 21
18.245074
 31
0.0
 11
280.082407
 21
20.153718
 31
0.0
 11
279.355000
 21
22.833000
 31
0.0
 11
280.082407
 21
25.511963
 31
0.0
 11
281.990926
 21
27.420537
 31
0.0
 11
284.670000
 21
28.148000
 31
0.0
  0
LWPOLYLINE
  5
141
100
AcDbEntity
  8
ink_ext_XXXXXX
 62
1
100
AcDbPolyline
 90
2
 70
1
 10
284.670000
 20
28.148000
 30
0.0
 10
284.670000
 20
28.148000
 30
0.0
  0
SPLINE
  5
142
100
AcDbEntity
  8
ink_ext_XXXXXX
 62
1
100
AcDbSpline
 70
0
 71
3
 72
19
 73
15
 74
13
 40
0.000000
 40
0.000000
 40
0.000000
 40
0.000000
 40
2.776069
 40
5.475122
 40
8.251191
 40
11.027260
 40
13.726313
 40
16.502382
 40
19.278451
 40
21.977504
 40
24.753573
 40
27.529642
 40
30.228695
 40
33.004764
 40
33.004764
 40
33.004764
 40
33.004764
 10
336.043750
 20
388.828750
 30
0.0
 10
336.190824
 20
389.764462
 30
0.0
 10
336.480893
 20
391.609928
 30
0.0
 10
338.595663
 20
393.640393
 30
0.0
 10
341.353839
 20
394.398969
 30
0.0
 10
344.141208
 20
393.640393
 30
0.0
 10
346.170021
 20
391.609928
 30
0.0
 10
346.929158
 20
388.828750
 30
0.0
 10
346.170021
 20
386.047572
 30
0.0
 10
344.141208
 20
384.017107
 30
0.0
 10
341.353839
 20
383.258531
 30
0.0
 10
338.595663
 20
384.017107
 30
0.0
 10
336.480893
 20
386.047572
 30
0.0
 10
336.190824
 20
387.893038
 30
0.0
 10
336.043750
 20
388.828750
 30
0.0
 11
336.043750
 21
388.828750
 31
0.0
 11
336.771157
 21
391.507824
 31
0.0
 11
338.679676
 21
393.416343
 31
0.0
 11
341.358750
 21
394.143750
 31
0.0
 11
344.037824
 21
393.416343
 31
0.0
 11
345.946343
 21
391.507824
 31
0.0
 11
346.673750
 21
388.828750
 31
0.0
 11
345.946343
 21
386.149676
 31
0.0
 11
344.037824
 21
384.241157
 31
0.0
 11
341.358750
 21
383.513750
 31
0.0
 11
338.679676
 21
384.241157
 31
0.0
 11
336.771157
 21
386.149676
 31
0.0
 11
336.043750
 21
388.828750
 31
0.0
  0
LWPOLYLINE
  5
143
100
AcDbEntity
  8
ink_ext_XXXXXX
 62
1
100
AcDbPolyline
 90
2
 70
1
 10
336.043750
 20
388.828750
 30
0.0
 10
336.043750
 20
388.828750
 30
0.0
  0
SPLINE
  5
144
100
AcDbEntity
  8
ink_ext_XXXXXX
 62
1
100
AcDbSpline
 70
0
 71
3
 72
19
 73
15
 74
13
 40
0.000000
 40
0.000000
 40
0.000000
 40
0.000000
 40
2.776069
 40
5.475122
 40
8.251191
 40
11.027260
 40
13.726313
 40
16.502382
 40
19.278451
 40
21.977504
 40
24.753573
 40
27.529642
 40
30.228695
 40
33.004764
 40
33.004764
 40
33.004764
 40
33.004764
 10
336.043750
 20
202.805000
 30
0.0
 10
336.190824
 20
203.740712
 30
0.0
 10
336.480893
 20
205.586178
 30
0.0
 10
338.595663
 20
207.616643
 30
0.0
 10
341.353839
 20
208.375219
 30
0.0
 10
344.141208
 20
207.616643
 30
0.0
 10
346.170021
 20
205.586178
 30
0.0
 10
346.929158
 20
202.805000
 30
0.0
 10
346.170021
 20
200.023822
 30
0.0
 10
344.141208
 20
197.993357
 30
0.0
 10
341.353839
 20
197.234781
 30
0.0
 10
338.595663
 20
197.993357
 30
0.0
 10
336.480893
 20
200.023822
 30
0.0
 10
336.190824
 20
201.869288
 30
0.0
 10
336.043750
 20
202.805000
 30
0.0
 11
336.043750
 21
202.805000
 31
0.0
 11
336.771157
 21
205.484074
 31
0.0
 11
338.679676
 21
207.392593
 31
0.0
 11
341.358750
 21
208.120000
 31
0.0
 11
344.037824
 21
207.392593
 31
0.0
 11
345.946343
 21
205.484074
 31
0.0
 11
346.673750
 21
202.805000
 31
0.0
 11
345.946343
 21
200.125926
 31
0.0
 11
344.037824
 21
198.217407
 31
0.0
 11
341.358750
 21
197.490000
 31
0.0
 11
338.679676
 21
198.217407
 31
0.0
 11
336.771157
 21
200.125926
 31
0.0
 11
336.043750
 21
202.805000
 31
0.0
  0
LWPOLYLINE
  5
145
100
AcDbEntity
  8
ink_ext_XXXXXX
 62
1
100
AcDbPolyline
 90
2
 70
1
 10
336.043750
 20
202.805000
 30
0.0
 10
336.043750
 20
202.805000
 30
0.0
  0
SPLINE
  5
146
100
AcDbEntity
  8
ink_ext_XXXXXX
 62
1
100
AcDbSpline
 70
0
 71
3
 72
19
 73
15
 74
13
 40
0.000000
 40
0.000000
 40
0.000000
 40
0.000000
 40
2.775931
 40
5.474980
 40
8.251055
 40
11.027130
 40
13.726180
 40
16.502110
 40
19.278396
 40
21.977559
 40
24.753643
 40
27.529727
 40
30.228889
 40
33.005175
 40
33.005175
 40
33.005175
 40
33.005175
 10
336.043750
 20
16.781750
 30
0.0
 10
336.190834
 20
17.717412
 30
0.0
 10
336.480929
 20
19.562821
 30
0.0
 10
338.595667
 20
21.593236
 30
0.0
 10
341.353839
 20
22.351860
 30
0.0
 10
344.141203
 20
21.593236
 30
0.0
 10
346.169989
 20
19.562820
 30
0.0
 10
346.929161
 20
16.781634
 30
0.0
 10
346.170035
 20
14.000389
 30
0.0
 10
344.141260
 20
11.969733
 30
0.0
 10
341.353839
 20
11.211066
 30
0.0
 10
338.595612
 20
11.969733
 30
0.0
 10
336.480872
 20
14.000390
 30
0.0
 10
336.190819
 20
15.845965
 30
0.0
 10
336.043750
 20
16.781750
 30
0.0
 11
336.043750
 21
16.781750
 31
0.0
 11
336.771157
 21
19.460681
 31
0.0
 11
338.679676
 21
21.369194
 31
0.0
 11
341.358750
 21
22.096625
 31
0.0
 11
344.037824
 21
21.369194
 31
0.0
 11
345.946343
 21
19.460681
 31
0.0
 11
346.673750
 21
16.781750
 31
0.0
 11
345.946343
 21
14.102451
 31
0.0
 11
344.037824
 21
12.193778
 31
0.0
 11
341.358750
 21
11.466312
 31
0.0
 11
338.679676
 21
12.193778
 31
0.0
 11
336.771157
 21
14.102451
 31
0.0
 11
336.043750
 21
16.781750
 31
0.0
  0
LWPOLYLINE
  5
147
100
AcDbEntity
  8
ink_ext_XXXXXX
 62
1
100
AcDbPolyline
 90
2
 70
1
 10
336.043750
 20
16.781750
 30
0.0
 10
336.043750
 20
16.781750
 30
0.0
  0
SPLINE
  5
148
100
AcDbEntity
  8
ink_ext_XXXXXX
 62
1
100
AcDbSpline
 70
0
 71
3
 72
19
 73
15
 74
13
 40
0.000000
 40
0.000000
 40
0.000000
 40
0.000000
 40
2.776069
 40
5.475122
 40
8.251191
 40
11.027260
 40
13.726313
 40
16.502382
 40
19.278451
 40
21.977504
 40
24.753573
 40
27.529642
 40
30.228695
 40
33.004764
 40
33.004764
 40
33.004764
 40
33.004764
 10
222.657500
 20
388.828750
 30
0.0
 10
222.804574
 20
389.764462
 30
0.0
 10
223.094643
 20
391.609928
 30
0.0
 10
225.209413
 20
393.640393
 30
0.0
 10
227.967589
 20
394.398969
 30
0.0
 10
230.754958
 20
393.640393
 30
0.0
 10
232.783771
 20
391.609928
 30
0.0
 10
233.542908
 20
388.828750
 30
0.0
 10
232.783771
 20
386.047572
 30
0.0
 10
230.754958
 20
384.017107
 30
0.0
 10
227.967589
 20
383.258531
 30
0.0
 10
225.209413
 20
384.017107
 30
0.0
 10
223.094643
 20
386.047572
 30
0.0
 10
222.804574
 20
387.893038
 30
0.0
 10
222.657500
 20
388.828750
 30
0.0
 11
222.657500
 21
388.828750
 31
0.0
 11
223.384907
 21
391.507824
 31
0.0
 11
225.293426
 21
393.416343
 31
0.0
 11
227.972500
 21
394.143750
 31
0.0
 11
230.651574
 21
393.416343
 31
0.0
 11
232.560093
 21
391.507824
 31
0.0
 11
233.287500
 21
388.828750
 31
0.0
 11
232.560093
 21
386.149676
 31
0.0
 11
230.651574
 21
384.241157
 31
0.0
 11
227.972500
 21
383.513750
 31
0.0
 11
225.293426
 21
384.241157
 31
0.0
 11
223.384907
 21
386.149676
 31
0.0
 11
222.657500
 21
388.828750
 31
0.0
  0
LWPOLYLINE
  5
149
100
AcDbEntity
  8
ink_ext_XXXXXX
 62
1
100
AcDbPolyline
 90
2
 70
1
 10
222.657500
 20
388.828750
 30
0.0
 10
222.657500
 20
388.828750
 30
0.0
  0
SPLINE
  5
14a
100
AcDbEntity
  8
ink_ext_XXXXXX
 62
1
100
AcDbSpline
 70
0
 71
3
 72
19
 73
15
 74
13
 40
0.000000
 40
0.000000
 40
0.000000
 40
0.000000
 40
2.776069
 40
5.475122
 40
8.251191
 40
11.027260
 40
13.726313
 40
16.502382
 40
19.278451
 40
21.977504
 40
24.753573
 40
27.529642
 40
30.228695
 40
33.004764
 40
33.004764
 40
33.004764
 40
33.004764
 10
222.657500
 20
202.805000
 30
0.0
 10
222.804574
 20
203.740712
 30
0.0
 10
223.094643
 20
205.586178
 30
0.0
 10
225.209413
 20
207.616643
 30
0.0
 10
227.967589
 20
208.375219
 30
0.0
 10
230.754958
 20
207.616643
 30
0.0
 10
232.783771
 20
205.586178
 30
0.0
 10
233.542908
 20
202.805000
 30
0.0
 10
232.783771
 20
200.023822
 30
0.0
 10
230.754958
 20
197.993357
 30
0.0
 10
227.967589
 20
197.234781
 30
0.0
 10
225.209413
 20
197.993357
 30
0.0
 10
223.094643
 20
200.023822
 30
0.0
 10
222.804574
 20
201.869288
 30
0.0
 10
222.657500
 20
202.805000
 30
0.0
 11
222.657500
 21
202.805000
 31
0.0
 11
223.384907
 21
205.484074
 31
0.0
 11
225.293426
 21
207.392593
 31
0.0
 11
227.972500
 21
208.120000
 31
0.0
 11
230.651574
 21
207.392593
 31
0.0
 11
232.560093
 21
205.484074
 31
0.0
 11
233.287500
 21
202.805000
 31
0.0
 11
232.560093
 21
200.125926
 31
0.0
 11
230.651574
 21
198.217407
 31
0.0
 11
227.972500
 21
197.490000
 31
0.0
 11
225.293426
 21
198.217407
 31
0.0
 11
223.384907
 21
200.125926
 31
0.0
 11
222.657500
 21
202.805000
 31
0.0
  0
LWPOLYLINE
  5
14b
100
AcDbEntity
  8
ink_ext_XXXXXX
 62
1
100
AcDbPolyline
 90
2
 70
1
 10
222.657500
 20
202.805000
 30
0.0
 10
222.657500
 20
202.805000
 30
0.0
  0
SPLINE
  5
14c
100
AcDbEntity
  8
ink_ext_XXXXXX
 62
1
100
AcDbSpline
 70
0
 71
3
 72
19
 73
15
 74
13
 40
0.000000
 40
0.000000
 40
0.000000
 40
0.000000
 40
2.775931
 40
5.474980
 40
8.251055
 40
11.027130
 40
13.726180
 40
16.502110
 40
19.278396
 40
21.977559
 40
24.753643
 40
27.529727
 40
30.228889
 40
33.005175
 40
33.005175
 40
33.005175
 40
33.005175
 10
222.657500
 20
16.781750
 30
0.0
 10
222.804584
 20
17.717412
 30
0.0
 10
223.094679
 20
19.562821
 30
0.0
 10
225.209417
 20
21.593236
 30
0.0
 10
227.967589
 20
22.351860
 30
0.0
 10
230.754953
 20
21.593236
 30
0.0
 10
232.783739
 20
19.562820
 30
0.0
 10
233.542911
 20
16.781634
 30
0.0
 10
232.783785
 20
14.000389
 30
0.0
 10
230.755010
 20
11.969733
 30
0.0
 10
227.967589
 20
11.211066
 30
0.0
 10
225.209362
 20
11.969733
 30
0.0
 10
223.094622
 20
14.000390
 30
0.0
 10
222.804569
 20
15.845965
 30
0.0
 10
222.657500
 20
16.781750
 30
0.0
 11
222.657500
 21
16.781750
 31
0.0
 11
223.384907
 21
19.460681
 31
0.0
 11
225.293426
 21
21.369194
 31
0.0
 11
227.972500
 21
22.096625
 31
0.0
 11
230.651574
 21
21.369194
 31
0.0
 11
232.560093
 21
19.460681
 31
0.0
 11
233.287500
 21
16.781750
 31
0.0
 11
232.560093
 21
14.102451
 31
0.0
 11
230.651574
 21
12.193778
 31
0.0
 11
227.972500
 21
11.466312
 31
0.0
 11
225.293426
 21
12.193778
 31
0.0
 11
223.384907
 21
14.102451
 31
0.0
 11
222.657500
 21
16.781750
 31
0.0
  0
SPLINE
  5
14d
100
AcDbEntity
  8
ink_ext_XXXXXX
 62
1
100
AcDbSpline
 70
0
 71
3
 72
13
 73
9
 74
7
 40
0.000000
 40
0.000000
 40
0.000000
 40
0.000000
 40
3.024012
 40
5.725778
 40
8.744599
 40
11.637934
 40
14.023281
 40
16.086339
 40
16.086339
 40
16.086339
 40
16.086339
 10
232.217500
 20
160.015000
 30
0.0
 10
232.359485
 20
158.969997
 30
0.0
 10
232.628325
 20
156.991350
 30
0.0
 10
235.255733
 20
155.214406
 30
0.0
 10
238.138855
 20
154.814522
 30
0.0
 10
240.911463
 20
155.304340
 30
0.0
 10
243.031198
 20
156.862202
 30
0.0
 10
243.390749
 20
158.339750
 30
0.0
 10
243.557500
 20
159.025000
 30
0.0
 11
232.217500
 21
160.015000
 31
0.0
 11
233.048333
 21
157.107361
 31
0.0
 11
235.204167
 21
155.478889
 31
0.0
 11
238.180000
 21
154.971250
 31
0.0
 11
241.009167
 21
155.577222
 31
0.0
 11
242.858333
 21
157.084028
 31
0.0
 11
243.557500
 21
159.025000
 31
0.0
  0
LWPOLYLINE
  5
14e
100
AcDbEntity
  8
ink_ext_XXXXXX
 62
1
100
AcDbPolyline
 90
2
 70
1
 10
222.657500
 20
16.781750
 30
0.0
 10
222.657500
 20
16.781750
 30
0.0
  0
SPLINE
  5
14f
100
AcDbEntity
  8
ink_ext_XXXXXX
 62
1
100
AcDbSpline
 70
0
 71
3
 72
10
 73
6
 74
4
 40
0.000000
 40
0.000000
 40
0.000000
 40
0.000000
 40
1.840360
 40
3.540288
 40
5.383770
 40
5.383770
 40
5.383770
 40
5.383770
 10
243.557500
 20
159.025000
 30
0.0
 10
243.519846
 20
159.644546
 30
0.0
 10
243.447410
 20
160.836362
 30
0.0
 10
242.345662
 20
162.417274
 30
0.0
 10
241.203972
 20
162.805515
 30
0.0
 10
240.610000
 20
163.007500
 30
0.0
 11
243.557500
 21
159.025000
 31
0.0
 11
243.268333
 21
160.842500
 31
0.0
 11
242.279167
 21
162.225000
 31
0.0
 11
240.610000
 21
163.007500
 31
0.0
  0
SPLINE
  5
150
100
AcDbEntity
  8
ink_ext_XXXXXX
 62
1
100
AcDbSpline
 70
0
 71
3
 72
25
 73
21
 74
19
 40
0.000000
 40
0.000000
 40
0.000000
 40
0.000000
 40
1.440458
 40
2.804262
 40
4.563622
 40
6.608673
 40
8.824266
 40
11.619903
 40
14.551307
 40
16.973301
 40
19.350270
 40
21.727240
 40
24.149233
 40
27.080638
 40
29.876275
 40
32.091868
 40
34.136919
 40
35.889687
 40
37.243371
 40
38.706133
 40
38.706133
 40
38.706133
 40
38.706133
 10
235.097500
 20
164.200000
 30
0.0
 10
234.625171
 20
164.336339
 30
0.0
 10
233.705649
 20
164.601761
 30
0.0
 10
232.735458
 20
165.898118
 30
0.0
 10
232.501229
 20
167.648937
 30
0.0
 10
233.029882
 20
169.690871
 30
0.0
 10
235.004064
 20
171.223890
 30
0.0
 10
237.691526
 20
171.662647
 30
0.0
 10
240.415462
 20
171.126648
 30
0.0
 10
242.727000
 20
170.141533
 30
0.0
 10
243.363256
 20
165.866395
 30
0.0
 10
242.726994
 20
170.141533
 30
0.0
 10
240.415487
 20
171.126651
 30
0.0
 10
237.691411
 20
171.662632
 30
0.0
 10
235.004432
 20
171.223940
 30
0.0
 10
233.028853
 20
169.690732
 30
0.0
 10
232.505134
 20
167.651622
 30
0.0
 10
232.724599
 20
165.904730
 30
0.0
 10
233.693439
 20
164.604477
 30
0.0
 10
234.617550
 20
164.338262
 30
0.0
 10
235.097500
 20
164.200000
 30
0.0
 11
235.097500
 21
164.200000
 31
0.0
 11
233.765833
 21
164.749167
 31
0.0
 11
232.919167
 21
165.818333
 31
0.0
 11
232.622500
 21
167.552500
 31
0.0
 11
233.203333
 21
169.513333
 31
0.0
 11
234.899167
 21
170.939167
 31
0.0
 11
237.640000
 21
171.490000
 31
0.0
 11
240.529167
 21
170.994167
 31
0.0
 11
242.483333
 21
169.563333
 31
0.0
 11
243.152500
 21
167.282500
 31
0.0
 11
242.483333
 21
169.563333
 31
0.0
 11
240.529167
 21
170.994167
 31
0.0
 11
237.640000
 21
171.490000
 31
0.0
 11
234.899167
 21
170.939167
 31
0.0
 11
233.203333
 21
169.513333
 31
0.0
 11
232.622500
 21
167.552500
 31
0.0
 11
232.909167
 21
165.823333
 31
0.0
 11
233.745833
 21
164.759167
 31
0.0
 11
235.097500
 21
164.200000
 31
0.0
  0
SPLINE
  5
151
100
AcDbEntity
  8
ink_ext_XXXXXX
 62
1
100
AcDbSpline
 70
0
 71
3
 72
10
 73
6
 74
4
 40
0.000000
 40
0.000000
 40
0.000000
 40
0.000000
 40
1.861610
 40
3.555739
 40
5.394554
 40
5.394554
 40
5.394554
 40
5.394554
 10
240.610000
 20
163.007500
 30
0.0
 10
241.212201
 20
162.807722
 30
0.0
 10
242.362425
 20
162.426140
 30
0.0
 10
243.457485
 20
160.833421
 30
0.0
 10
243.523264
 20
159.644043
 30
0.0
 10
243.557500
 20
159.025000
 30
0.0
 11
240.610000
 21
163.007500
 31
0.0
 11
242.299167
 21
162.225000
 31
0.0
 11
243.278333
 21
160.842500
 31
0.0
 11
243.557500
 21
159.025000
 31
0.0
  0
LWPOLYLINE
  5
152
100
AcDbEntity
  8
ink_ext_XXXXXX
 62
1
100
AcDbPolyline
 90
3
 70
1
 10
240.610000
 20
163.007500
 30
0.0
 10
235.097500
 20
164.200000
 30
0.0
 10
240.610000
 20
163.007500
 30
0.0
  0
LWPOLYLINE
  5
153
100
AcDbEntity
  8
ink_ext_XXXXXX
 62
1
100
AcDbPolyline
 90
2
 70
1
 10
232.217500
 20
160.015000
 30
0.0
 10
232.217500
 20
160.015000
 30
0.0
  0
LWPOLYLINE
  5
154
100
AcDbEntity
  8
ink_ext_XXXXXX
 62
1
100
AcDbPolyline
 90
8
 70
1
 10
261.940000
 20
155.106250
 30
0.0
 10
251.455000
 20
155.106250
 30
0.0
 10
251.455000
 20
171.242500
 30
0.0
 10
261.940000
 20
171.242500
 30
0.0
 10
251.455000
 20
171.242500
 30
0.0
 10
251.455000
 20
155.106250
 30
0.0
 10
261.940000
 20
155.106250
 30
0.0
 10
261.940000
 20
155.106250
 30
0.0
  0
SPLINE
  5
155
100
AcDbEntity
  8
ink_ext_XXXXXX
 62
1
100
AcDbSpline
 70
0
 71
3
 72
13
 73
9
 74
7
 40
0.000000
 40
0.000000
 40
0.000000
 40
0.000000
 40
2.063058
 40
4.448405
 40
7.341740
 40
10.360561
 40
13.062327
 40
16.086339
 40
16.086339
 40
16.086339
 40
16.086339
 10
243.557500
 20
159.025000
 30
0.0
 10
243.390749
 20
158.339750
 30
0.0
 10
243.031198
 20
156.862202
 30
0.0
 10
240.911463
 20
155.304340
 30
0.0
 10
238.138855
 20
154.814522
 30
0.0
 10
235.255733
 20
155.214406
 30
0.0
 10
232.628325
 20
156.991350
 30
0.0
 10
232.359485
 20
158.969997
 30
0.0
 10
232.217500
 20
160.015000
 30
0.0
 11
243.557500
 21
159.025000
 31
0.0
 11
242.858333
 21
157.084028
 31
0.0
 11
241.009167
 21
155.577222
 31
0.0
 11
238.180000
 21
154.971250
 31
0.0
 11
235.204167
 21
155.478889
 31
0.0
 11
233.048333
 21
157.107361
 31
0.0
 11
232.217500
 21
160.015000
 31
0.0
  0
SPLINE
  5
156
100
AcDbEntity
  8
ink_ext_XXXXXX
 62
1
100
AcDbSpline
 70
0
 71
3
 72
13
 73
9
 74
7
 40
0.000000
 40
0.000000
 40
0.000000
 40
0.000000
 40
3.024012
 40
5.725778
 40
8.744599
 40
11.637934
 40
14.023281
 40
16.086339
 40
16.086339
 40
16.086339
 40
16.086339
 10
267.430000
 20
160.015000
 30
0.0
 10
267.571985
 20
158.969997
 30
0.0
 10
267.840825
 20
156.991350
 30
0.0
 10
270.468233
 20
155.214406
 30
0.0
 10
273.351355
 20
154.814522
 30
0.0
 10
276.123963
 20
155.304340
 30
0.0
 10
278.243698
 20
156.862202
 30
0.0
 10
278.603249
 20
158.339750
 30
0.0
 10
278.770000
 20
159.025000
 30
0.0
 11
267.430000
 21
160.015000
 31
0.0
 11
268.260833
 21
157.107361
 31
0.0
 11
270.416667
 21
155.478889
 31
0.0
 11
273.392500
 21
154.971250
 31
0.0
 11
276.221667
 21
155.577222
 31
0.0
 11
278.070833
 21
157.084028
 31
0.0
 11
278.770000
 21
159.025000
 31
0.0
  0
LWPOLYLINE
  5
157
100
AcDbEntity
  8
ink_ext_XXXXXX
 62
1
100
AcDbPolyline
 90
4
 70
1
 10
261.040000
 20
163.412500
 30
0.0
 10
251.455000
 20
163.412500
 30
0.0
 10
261.040000
 20
163.412500
 30
0.0
 10
261.040000
 20
163.412500
 30
0.0
  0
SPLINE
  5
158
100
AcDbEntity
  8
ink_ext_XXXXXX
 62
1
100
AcDbSpline
 70
0
 71
3
 72
10
 73
6
 74
4
 40
0.000000
 40
0.000000
 40
0.000000
 40
0.000000
 40
1.840360
 40
3.540288
 40
5.383770
 40
5.383770
 40
5.383770
 40
5.383770
 10
278.770000
 20
159.025000
 30
0.0
 10
278.732346
 20
159.644546
 30
0.0
 10
278.659910
 20
160.836362
 30
0.0
 10
277.558162
 20
162.417274
 30
0.0
 10
276.416472
 20
162.805515
 30
0.0
 10
275.822500
 20
163.007500
 30
0.0
 11
278.770000
 21
159.025000
 31
0.0
 11
278.480833
 21
160.842500
 31
0.0
 11
277.491667
 21
162.225000
 31
0.0
 11
275.822500
 21
163.007500
 31
0.0
  0
SPLINE
  5
159
100
AcDbEntity
  8
ink_ext_XXXXXX
 62
1
100
AcDbSpline
 70
0
 71
3
 72
25
 73
21
 74
19
 40
0.000000
 40
0.000000
 40
0.000000
 40
0.000000
 40
1.440458
 40
2.804262
 40
4.563622
 40
6.608673
 40
8.824266
 40
11.619903
 40
14.551307
 40
16.973301
 40
19.350270
 40
21.727240
 40
24.149233
 40
27.080638
 40
29.876275
 40
32.091868
 40
34.136919
 40
35.889687
 40
37.243371
 40
38.706133
 40
38.706133
 40
38.706133
 40
38.706133
 10
270.310000
 20
164.200000
 30
0.0
 10
269.837671
 20
164.336339
 30
0.0
 10
268.918149
 20
164.601761
 30
0.0
 10
267.947958
 20
165.898118
 30
0.0
 10
267.713729
 20
167.648937
 30
0.0
 10
268.242382
 20
169.690871
 30
0.0
 10
270.216564
 20
171.223890
 30
0.0
 10
272.904026
 20
171.662647
 30
0.0
 10
275.627962
 20
171.126648
 30
0.0
 10
277.939500
 20
170.141533
 30
0.0
 10
278.575756
 20
165.866395
 30
0.0
 10
277.939494
 20
170.141533
 30
0.0
 10
275.627987
 20
171.126651
 30
0.0
 10
272.903911
 20
171.662632
 30
0.0
 10
270.216932
 20
171.223940
 30
0.0
 10
268.241353
 20
169.690732
 30
0.0
 10
267.717634
 20
167.651622
 30
0.0
 10
267.937099
 20
165.904730
 30
0.0
 10
268.905939
 20
164.604477
 30
0.0
 10
269.830050
 20
164.338262
 30
0.0
 10
270.310000
 20
164.200000
 30
0.0
 11
270.310000
 21
164.200000
 31
0.0
 11
268.978333
 21
164.749167
 31
0.0
 11
268.131667
 21
165.818333
 31
0.0
 11
267.835000
 21
167.552500
 31
0.0
 11
268.415833
 21
169.513333
 31
0.0
 11
270.111667
 21
170.939167
 31
0.0
 11
272.852500
 21
171.490000
 31
0.0
 11
275.741667
 21
170.994167
 31
0.0
 11
277.695833
 21
169.563333
 31
0.0
 11
278.365000
 21
167.282500
 31
0.0
 11
277.695833
 21
169.563333
 31
0.0
 11
275.741667
 21
170.994167
 31
0.0
 11
272.852500
 21
171.490000
 31
0.0
 11
270.111667
 21
170.939167
 31
0.0
 11
268.415833
 21
169.513333
 31
0.0
 11
267.835000
 21
167.552500
 31
0.0
 11
268.121667
 21
165.823333
 31
0.0
 11
268.958333
 21
164.759167
 31
0.0
 11
270.310000
 21
164.200000
 31
0.0
  0
SPLINE
  5
15a
100
AcDbEntity
  8
ink_ext_XXXXXX
 62
1
100
AcDbSpline
 70
0
 71
3
 72
10
 73
6
 74
4
 40
0.000000
 40
0.000000
 40
0.000000
 40
0.000000
 40
1.861610
 40
3.555739
 40
5.394554
 40
5.394554
 40
5.394554
 40
5.394554
 10
275.822500
 20
163.007500
 30
0.0
 10
276.424701
 20
162.807722
 30
0.0
 10
277.574925
 20
162.426140
 30
0.0
 10
278.669985
 20
160.833421
 30
0.0
 10
278.735764
 20
159.644043
 30
0.0
 10
278.770000
 20
159.025000
 30
0.0
 11
275.822500
 21
163.007500
 31
0.0
 11
277.511667
 21
162.225000
 31
0.0
 11
278.490833
 21
160.842500
 31
0.0
 11
278.770000
 21
159.025000
 31
0.0
  0
LWPOLYLINE
  5
15b
100
AcDbEntity
  8
ink_ext_XXXXXX
 62
1
100
AcDbPolyline
 90
3
 70
1
 10
275.822500
 20
163.007500
 30
0.0
 10
270.310000
 20
164.200000
 30
0.0
 10
275.822500
 20
163.007500
 30
0.0
  0
LWPOLYLINE
  5
15c
100
AcDbEntity
  8
ink_ext_XXXXXX
 62
1
100
AcDbPolyline
 90
2
 70
1
 10
267.430000
 20
160.015000
 30
0.0
 10
267.430000
 20
160.015000
 30
0.0
  0
LWPOLYLINE
  5
15d
100
AcDbEntity
  8
ink_ext_XXXXXX
 62
1
100
AcDbPolyline
 90
10
 70
1
 10
284.237500
 20
171.332500
 30
0.0
 10
288.512500
 20
155.106250
 30
0.0
 10
293.665000
 20
171.332500
 30
0.0
 10
298.817500
 20
155.106250
 30
0.0
 10
303.091250
 20
171.332500
 30
0.0
 10
298.817500
 20
155.106250
 30
0.0
 10
293.665000
 20
171.332500
 30
0.0
 10
288.512500
 20
155.106250
 30
0.0
 10
284.237500
 20
171.332500
 30
0.0
 10
284.237500
 20
171.332500
 30
0.0
  0
SPLINE
  5
15e
100
AcDbEntity
  8
ink_ext_XXXXXX
 62
1
100
AcDbSpline
 70
0
 71
3
 72
13
 73
9
 74
7
 40
0.000000
 40
0.000000
 40
0.000000
 40
0.000000
 40
2.063058
 40
4.448405
 40
7.341740
 40
10.360561
 40
13.062327
 40
16.086339
 40
16.086339
 40
16.086339
 40
16.086339
 10
278.770000
 20
159.025000
 30
0.0
 10
278.603249
 20
158.339750
 30
0.0
 10
278.243698
 20
156.862202
 30
0.0
 10
276.123963
 20
155.304340
 30
0.0
 10
273.351355
 20
154.814522
 30
0.0
 10
270.468233
 20
155.214406
 30
0.0
 10
267.840825
 20
156.991350
 30
0.0
 10
267.571985
 20
158.969997
 30
0.0
 10
267.430000
 20
160.015000
 30
0.0
 11
278.770000
 21
159.025000
 31
0.0
 11
278.070833
 21
157.084028
 31
0.0
 11
276.221667
 21
155.577222
 31
0.0
 11
273.392500
 21
154.971250
 31
0.0
 11
270.416667
 21
155.478889
 31
0.0
 11
268.260833
 21
157.107361
 31
0.0
 11
267.430000
 21
160.015000
 31
0.0
  0
LWPOLYLINE
  5
15f
100
AcDbEntity
  8
ink_ext_XXXXXX
 62
1
100
AcDbPolyline
 90
4
 70
1
 10
308.875000
 20
163.592500
 30
0.0
 10
315.422500
 20
163.592500
 30
0.0
 10
308.875000
 20
163.592500
 30
0.0
 10
308.875000
 20
163.592500
 30
0.0
  0
LWPOLYLINE
  5
160
100
AcDbEntity
  8
ink_ext_XXXXXX
 62
1
100
AcDbPolyline
 90
3
 70
1
 10
325.478750
 20
155.106250
 30
0.0
 10
325.478750
 20
155.106250
 30
0.0
 10
325.478750
 20
155.106250
 30
0.0
  0
SPLINE
  5
161
100
AcDbEntity
  8
ink_ext_XXXXXX
 62
1
100
AcDbSpline
 70
0
 71
3
 72
31
 73
27
 74
25
 40
0.000000
 40
0.000000
 40
0.000000
 40
0.000000
 40
3.227100
 40
6.489746
 40
10.599424
 40
14.698180
 40
17.963672
 40
21.192155
 40
24.420638
 40
27.686130
 40
31.784886
 40
35.894565
 40
39.157210
 40
42.384310
 40
45.611411
 40
48.874056
 40
52.983735
 40
57.082491
 40
60.347983
 40
63.576466
 40
66.804949
 40
70.070440
 40
74.169197
 40
78.278875
 40
81.541520
 40
84.768621
 40
84.768621
 40
84.768621
 40
84.768621
 10
325.478750
 20
155.106250
 30
0.0
 10
326.605206
 20
155.326037
 30
0.0
 10
328.870525
 20
155.768031
 30
0.0
 10
330.273743
 20
159.439875
 30
0.0
 10
330.445566
 20
163.195846
 30
0.0
 10
330.271807
 20
167.011734
 30
0.0
 10
328.871130
 20
170.539888
 30
0.0
 10
325.478750
 20
171.692741
 30
0.0
 10
322.086370
 20
170.540372
 30
0.0
 10
320.685693
 20
167.009564
 30
0.0
 10
320.511934
 20
163.206343
 30
0.0
 10
320.683757
 20
159.404273
 30
0.0
 10
322.086975
 20
155.870305
 30
0.0
 10
325.478750
 20
154.726315
 30
0.0
 10
328.870525
 20
155.870305
 30
0.0
 10
330.273743
 20
159.404273
 30
0.0
 10
330.445566
 20
163.206343
 30
0.0
 10
330.271807
 20
167.009564
 30
0.0
 10
328.871130
 20
170.540372
 30
0.0
 10
325.478750
 20
171.692741
 30
0.0
 10
322.086370
 20
170.539888
 30
0.0
 10
320.685693
 20
167.011734
 30
0.0
 10
320.511934
 20
163.195846
 30
0.0
 10
320.683757
 20
159.439875
 30
0.0
 10
322.086975
 20
155.768031
 30
0.0
 10
324.352294
 20
155.326037
 30
0.0
 10
325.478750
 20
155.106250
 30
0.0
 11
325.478750
 21
155.106250
 31
0.0
 11
328.510417
 21
156.212222
 31
0.0
 11
329.992083
 21
159.119028
 31
0.0
 11
330.383750
 21
163.210000
 31
0.0
 11
329.992083
 21
167.290000
 31
0.0
 11
328.510417
 21
170.200000
 31
0.0
 11
325.478750
 21
171.310000
 31
0.0
 11
322.447083
 21
170.200000
 31
0.0
 11
320.965417
 21
167.290000
 31
0.0
 11
320.573750
 21
163.210000
 31
0.0
 11
320.965417
 21
159.119028
 31
0.0
 11
322.447083
 21
156.212222
 31
0.0
 11
325.478750
 21
155.106250
 31
0.0
 11
328.510417
 21
156.212222
 31
0.0
 11
329.992083
 21
159.119028
 31
0.0
 11
330.383750
 21
163.210000
 31
0.0
 11
329.992083
 21
167.290000
 31
0.0
 11
328.510417
 21
170.200000
 31
0.0
 11
325.478750
 21
171.310000
 31
0.0
 11
322.447083
 21
170.200000
 31
0.0
 11
320.965417
 21
167.290000
 31
0.0
 11
320.573750
 21
163.210000
 31
0.0
 11
320.965417
 21
159.119028
 31
0.0
 11
322.447083
 21
156.212222
 31
0.0
 11
325.478750
 21
155.106250
 31
0.0
  0
SPLINE
  5
162
100
AcDbEntity
  8
ink_ext_XXXXXX
 62
1
100
AcDbSpline
 70
0
 71
3
 72
13
 73
9
 74
7
 40
0.000000
 40
0.000000
 40
0.000000
 40
0.000000
 40
2.244344
 40
4.149740
 40
5.688320
 40
7.226900
 40
9.132296
 40
11.376640
 40
11.376640
 40
11.376640
 40
11.376640
 10
339.541250
 20
171.332500
 30
0.0
 10
339.362781
 20
170.556070
 30
0.0
 10
339.032795
 20
169.120469
 30
0.0
 10
337.637312
 20
168.133383
 30
0.0
 10
334.858025
 20
167.683614
 30
0.0
 10
337.637312
 20
168.133383
 30
0.0
 10
339.032795
 20
169.120469
 30
0.0
 10
339.362781
 20
170.556070
 30
0.0
 10
339.541250
 20
171.332500
 30
0.0
 11
339.541250
 21
171.332500
 31
0.0
 11
338.804583
 21
169.212500
 31
0.0
 11
337.217917
 21
168.157500
 31
0.0
 11
335.716250
 21
167.822500
 31
0.0
 11
337.217917
 21
168.157500
 31
0.0
 11
338.804583
 21
169.212500
 31
0.0
 11
339.541250
 21
171.332500
 31
0.0
  0
LWPOLYLINE
  5
163
100
AcDbEntity
  8
ink_ext_XXXXXX
 62
1
100
AcDbPolyline
 90
4
 70
1
 10
339.541250
 20
155.106250
 30
0.0
 10
339.541250
 20
171.332500
 30
0.0
 10
339.541250
 20
155.106250
 30
0.0
 10
339.541250
 20
155.106250
 30
0.0
  0
SPLINE
  5
164
100
AcDbEntity
  8
ink_ext_XXXXXX
 62
1
100
AcDbSpline
 70
0
 71
3
 72
13
 73
9
 74
7
 40
0.000000
 40
0.000000
 40
0.000000
 40
0.000000
 40
2.776069
 40
5.475122
 40
8.251191
 40
11.027260
 40
13.726313
 40
16.502382
 40
16.502382
 40
16.502382
 40
16.502382
 10
125.221250
 20
165.285000
 30
0.0
 10
126.156962
 20
165.432183
 30
0.0
 10
128.002428
 20
165.722467
 30
0.0
 10
130.032893
 20
167.835645
 30
0.0
 10
130.791469
 20
170.600000
 30
0.0
 10
130.032893
 20
173.364355
 30
0.0
 10
128.002428
 20
175.477533
 30
0.0
 10
126.156962
 20
175.767817
 30
0.0
 10
125.221250
 20
175.915000
 30
0.0
 11
125.221250
 21
165.285000
 31
0.0
 11
127.900324
 21
166.012407
 31
0.0
 11
129.808843
 21
167.920926
 31
0.0
 11
130.536250
 21
170.600000
 31
0.0
 11
129.808843
 21
173.279074
 31
0.0
 11
127.900324
 21
175.187593
 31
0.0
 11
125.221250
 21
175.915000
 31
0.0
  0
LWPOLYLINE
  5
165
100
AcDbEntity
  8
ink_ext_XXXXXX
 62
1
100
AcDbPolyline
 90
2
 70
1
 10
125.221250
 20
175.915000
 30
0.0
 10
72.071250
 20
175.915000
 30
0.0
  0
SPLINE
  5
166
100
AcDbEntity
  8
ink_ext_XXXXXX
 62
1
100
AcDbSpline
 70
0
 71
3
 72
13
 73
9
 74
7
 40
0.000000
 40
0.000000
 40
0.000000
 40
0.000000
 40
2.776145
 40
5.475116
 40
8.251162
 40
11.027208
 40
13.726179
 40
16.502324
 40
16.502324
 40
16.502324
 40
16.502324
 10
72.071250
 20
175.915000
 30
0.0
 10
71.135505
 20
175.767830
 30
0.0
 10
69.290027
 20
175.477581
 30
0.0
 10
67.259623
 20
173.364322
 30
0.0
 10
66.501209
 20
170.600000
 30
0.0
 10
67.259623
 20
167.835678
 30
0.0
 10
69.290027
 20
165.722419
 30
0.0
 10
71.135505
 20
165.432170
 30
0.0
 10
72.071250
 20
165.285000
 30
0.0
 11
72.071250
 21
175.915000
 31
0.0
 11
69.392097
 21
175.187593
 31
0.0
 11
67.483694
 21
173.279074
 31
0.0
 11
66.756375
 21
170.600000
 31
0.0
 11
67.483694
 21
167.920926
 31
0.0
 11
69.392097
 21
166.012407
 31
0.0
 11
72.071250
 21
165.285000
 31
0.0
  0
LWPOLYLINE
  5
167
100
AcDbEntity
  8
ink_ext_XXXXXX
 62
1
100
AcDbPolyline
 90
3
 70
1
 10
72.071250
 20
165.285000
 30
0.0
 10
125.221250
 20
165.285000
 30
0.0
 10
125.221250
 20
165.285000
 30
0.0
  0
SPLINE
  5
168
100
AcDbEntity
  8
ink_ext_XXXXXX
 62
1
100
AcDbSpline
 70
0
 71
3
 72
13
 73
9
 74
7
 40
0.000000
 40
0.000000
 40
0.000000
 40
0.000000
 40
7.402498
 40
14.599853
 40
22.002450
 40
29.405046
 40
36.602401
 40
44.004899
 40
44.004899
 40
44.004899
 40
44.004899
 10
86.240250
 20
230.332500
 30
0.0
 10
85.847707
 20
227.837389
 30
0.0
 10
85.073499
 20
222.916313
 30
0.0
 10
79.438230
 20
217.502260
 30
0.0
 10
72.066875
 20
215.479436
 30
0.0
 10
64.695520
 20
217.502260
 30
0.0
 10
59.060251
 20
222.916313
 30
0.0
 10
58.286043
 20
227.837389
 30
0.0
 10
57.893500
 20
230.332500
 30
0.0
 11
86.240250
 21
230.332500
 31
0.0
 11
84.300366
 21
223.188704
 31
0.0
 11
79.210843
 21
218.099630
 31
0.0
 11
72.066875
 21
216.160000
 31
0.0
 11
64.922907
 21
218.099630
 31
0.0
 11
59.833384
 21
223.188704
 31
0.0
 11
57.893500
 21
230.332500
 31
0.0
  0
LWPOLYLINE
  5
169
100
AcDbEntity
  8
ink_ext_XXXXXX
 62
1
100
AcDbPolyline
 90
2
 70
1
 10
57.893500
 20
230.332500
 30
0.0
 10
57.893500
 20
315.372500
 30
0.0
  0
LWPOLYLINE
  5
16a
100
AcDbEntity
  8
ink_ext_XXXXXX
 62
1
100
AcDbPolyline
 90
3
 70
1
 10
86.240250
 20
315.372500
 30
0.0
 10
86.240250
 20
230.332500
 30
0.0
 10
86.240250
 20
230.332500
 30
0.0
  0
LWPOLYLINE
  5
16b
100
AcDbEntity
  8
ink_ext_XXXXXX
 62
1
100
AcDbPolyline
 90
6
 70
1
 10
58.566875
 20
340.706250
 30
0.0
 10
85.566875
 20
340.706250
 30
0.0
 10
85.566875
 20
413.432375
 30
0.0
 10
58.566875
 20
413.432375
 30
0.0
 10
58.566875
 20
340.706250
 30
0.0
 10
58.566875
 20
340.706250
 30
0.0
  0
SPLINE
  5
16c
100
AcDbEntity
  8
ink_ext_XXXXXX
 62
1
100
AcDbSpline
 70
0
 71
3
 72
13
 73
9
 74
7
 40
0.000000
 40
0.000000
 40
0.000000
 40
0.000000
 40
7.402811
 40
14.600591
 40
22.003273
 40
29.405954
 40
36.603735
 40
44.006546
 40
44.006546
 40
44.006546
 40
44.006546
 10
57.893500
 20
315.372500
 30
0.0
 10
58.286061
 20
317.867699
 30
0.0
 10
59.060309
 20
322.788991
 30
0.0
 10
64.695334
 20
328.203608
 30
0.0
 10
72.066875
 20
330.226992
 30
0.0
 10
79.438416
 20
328.203608
 30
0.0
 10
85.073441
 20
322.788991
 30
0.0
 10
85.847689
 20
317.867699
 30
0.0
 10
86.240250
 20
315.372500
 30
0.0
 11
57.893500
 21
315.372500
 31
0.0
 11
59.833384
 21
322.516620
 31
0.0
 11
64.922907
 21
327.606296
 31
0.0
 11
72.066875
 21
329.546250
 31
0.0
 11
79.210843
 21
327.606296
 31
0.0
 11
84.300366
 21
322.516620
 31
0.0
 11
86.240250
 21
315.372500
 31
0.0
  0
LWPOLYLINE
  5
16d
100
AcDbEntity
  8
ink_ext_XXXXXX
 62
1
100
AcDbPolyline
 90
2
 70
1
 10
1.200684
 20
418.658750
 30
0.0
 10
1.200684
 20
164.426250
 30
0.0
  0
SPLINE
  5
16e
100
AcDbEntity
  8
ink_ext_XXXXXX
 62
1
100
AcDbSpline
 70
0
 71
3
 72
10
 73
6
 74
4
 40
0.000000
 40
0.000000
 40
0.000000
 40
0.000000
 40
9.253113
 40
18.249996
 40
27.503614
 40
27.503614
 40
27.503614
 40
27.503614
 10
1.200684
 20
164.426250
 30
0.0
 10
1.691341
 20
161.326241
 30
0.0
 10
2.659067
 20
155.212065
 30
0.0
 10
9.702966
 20
148.168324
 30
0.0
 10
15.817318
 20
147.200646
 30
0.0
 10
18.917500
 20
146.710000
 30
0.0
 11
1.200684
 21
164.426250
 31
0.0
 11
3.625416
 21
155.496481
 31
0.0
 11
9.987218
 21
149.134769
 31
0.0
 11
18.917500
 21
146.710000
 31
0.0
  0
LWPOLYLINE
  5
16f
100
AcDbEntity
  8
ink_ext_XXXXXX
 62
1
100
AcDbPolyline
 90
2
 70
1
 10
18.917500
 20
146.710000
 30
0.0
 10
125.216250
 20
146.710000
 30
0.0
  0
SPLINE
  5
170
100
AcDbEntity
  8
ink_ext_XXXXXX
 62
1
100
AcDbSpline
 70
0
 71
3
 72
16
 73
12
 74
10
 40
0.000000
 40
0.000000
 40
0.000000
 40
0.000000
 40
9.253658
 40
18.250283
 40
27.503332
 40
143.316573
 40
183.022591
 40
281.735832
 40
290.989417
 40
299.985845
 40
309.239431
 40
309.239431
 40
309.239431
 40
309.239431
 10
125.216250
 20
146.710000
 30
0.0
 10
128.317905
 20
147.200667
 30
0.0
 10
134.435062
 20
148.168372
 30
0.0
 10
141.457617
 20
155.211606
 30
0.0
 10
148.963246
 20
200.139404
 30
0.0
 10
142.572127
 20
254.829568
 30
0.0
 10
142.475339
 20
339.651721
 30
0.0
 10
148.055116
 20
388.674480
 30
0.0
 10
141.455287
 20
427.873864
 30
0.0
 10
134.435639
 20
434.916910
 30
0.0
 10
128.318113
 20
435.884426
 30
0.0
 10
125.216250
 20
436.375000
 30
0.0
 11
125.216250
 21
146.710000
 31
0.0
 11
134.146574
 21
149.134769
 31
0.0
 11
140.508009
 21
155.496481
 31
0.0
 11
142.932500
 21
164.426250
 31
0.0
 11
142.932500
 21
280.239491
 31
0.0
 11
142.932500
 21
319.945509
 31
0.0
 11
142.932500
 21
418.658750
 31
0.0
 11
140.508009
 21
427.589074
 31
0.0
 11
134.146574
 21
433.950509
 31
0.0
 11
125.216250
 21
436.375000
 31
0.0
  0
LWPOLYLINE
  5
171
100
AcDbEntity
  8
ink_ext_XXXXXX
 62
1
100
AcDbPolyline
 90
2
 70
1
 10
125.216250
 20
436.375000
 30
0.0
 10
18.917500
 20
436.375000
 30
0.0
  0
SPLINE
  5
172
100
AcDbEntity
  8
ink_ext_XXXXXX
 62
1
100
AcDbSpline
 70
0
 71
3
 72
10
 73
6
 74
4
 40
0.000000
 40
0.000000
 40
0.000000
 40
0.000000
 40
9.253545
 40
18.250232
 40
27.503881
 40
27.503881
 40
27.503881
 40
27.503881
 10
18.917500
 20
436.375000
 30
0.0
 10
15.817328
 20
435.884454
 30
0.0
 10
9.703037
 20
434.916979
 30
0.0
 10
2.658859
 20
427.873322
 30
0.0
 10
1.691283
 20
421.758970
 30
0.0
 10
1.200684
 20
418.658750
 30
0.0
 11
18.917500
 21
436.375000
 31
0.0
 11
9.987218
 21
433.950509
 31
0.0
 11
3.625416
 21
427.589074
 31
0.0
 11
1.200684
 21
418.658750
 31
0.0
  0
SPLINE
  5
173
100
AcDbEntity
  8
ink_ext_XXXXXX
 62
1
100
AcDbSpline
 70
0
 71
3
 72
13
 73
9
 74
7
 40
0.000000
 40
0.000000
 40
0.000000
 40
0.000000
 40
3.024023
 40
5.725889
 40
8.744916
 40
11.638042
 40
14.023267
 40
16.086281
 40
16.086281
 40
16.086281
 40
16.086281
 10
19.619125
 20
195.160000
 30
0.0
 10
19.761123
 20
194.114992
 30
0.0
 10
20.029992
 20
192.136302
 30
0.0
 10
22.657572
 20
190.359399
 30
0.0
 10
25.540713
 20
189.959518
 30
0.0
 10
28.313288
 20
190.449342
 30
0.0
 10
30.432852
 20
192.007235
 30
0.0
 10
30.792296
 20
193.484754
 30
0.0
 10
30.959000
 20
194.170000
 30
0.0
 11
19.619125
 21
195.160000
 31
0.0
 11
20.450000
 21
192.252361
 31
0.0
 11
22.605958
 21
190.623889
 31
0.0
 11
25.582000
 21
190.116250
 31
0.0
 11
28.410954
 21
190.722222
 31
0.0
 11
30.259963
 21
192.229028
 31
0.0
 11
30.959000
 21
194.170000
 31
0.0
  0
LWPOLYLINE
  5
174
100
AcDbEntity
  8
ink_ext_XXXXXX
 62
1
100
AcDbPolyline
 90
2
 70
1
 10
1.200684
 20
418.658750
 30
0.0
 10
1.200684
 20
418.658750
 30
0.0
  0
SPLINE
  5
175
100
AcDbEntity
  8
ink_ext_XXXXXX
 62
1
100
AcDbSpline
 70
0
 71
3
 72
10
 73
6
 74
4
 40
0.000000
 40
0.000000
 40
0.000000
 40
0.000000
 40
1.840328
 40
3.540251
 40
5.383699
 40
5.383699
 40
5.383699
 40
5.383699
 10
30.959000
 20
194.170000
 30
0.0
 10
30.921430
 20
194.789548
 30
0.0
 10
30.849155
 20
195.981376
 30
0.0
 10
29.747369
 20
197.562262
 30
0.0
 10
28.605704
 20
197.950512
 30
0.0
 10
28.011750
 20
198.152500
 30
0.0
 11
30.959000
 21
194.170000
 31
0.0
 11
30.670037
 21
195.987500
 31
0.0
 11
29.680880
 21
197.370000
 31
0.0
 11
28.011750
 21
198.152500
 31
0.0
  0
SPLINE
  5
176
100
AcDbEntity
  8
ink_ext_XXXXXX
 62
1
100
AcDbSpline
 70
0
 71
3
 72
25
 73
21
 74
19
 40
0.000000
 40
0.000000
 40
0.000000
 40
0.000000
 40
1.440266
 40
2.803992
 40
4.563345
 40
6.608389
 40
8.823986
 40
11.619763
 40
14.550940
 40
16.972836
 40
19.349834
 40
21.726833
 40
24.148729
 40
27.079905
 40
29.875683
 40
32.091279
 40
34.136324
 40
35.889090
 40
37.242714
 40
38.705231
 40
38.705231
 40
38.705231
 40
38.705231
 10
22.499000
 20
199.345000
 30
0.0
 10
22.026740
 20
199.481346
 30
0.0
 10
21.107317
 20
199.746793
 30
0.0
 10
20.137308
 20
201.043163
 30
0.0
 10
19.903118
 20
202.793931
 30
0.0
 10
20.431724
 20
204.835879
 30
0.0
 10
22.405965
 20
206.368917
 30
0.0
 10
25.093395
 20
206.807639
 30
0.0
 10
27.817303
 20
206.271658
 30
0.0
 10
30.128610
 20
205.286448
 30
0.0
 10
30.765080
 20
201.011400
 30
0.0
 10
30.128604
 20
205.286447
 30
0.0
 10
27.817328
 20
206.271662
 30
0.0
 10
25.093281
 20
206.807624
 30
0.0
 10
22.406332
 20
206.368967
 30
0.0
 10
20.430698
 20
204.835740
 30
0.0
 10
19.907013
 20
202.796614
 30
0.0
 10
20.126477
 20
201.049766
 30
0.0
 10
21.095151
 20
199.749532
 30
0.0
 10
22.019141
 20
199.483276
 30
0.0
 10
22.499000
 20
199.345000
 30
0.0
 11
22.499000
 21
199.345000
 31
0.0
 11
21.167542
 21
199.894167
 31
0.0
 11
20.321000
 21
200.963333
 31
0.0
 11
20.024375
 21
202.697500
 31
0.0
 11
20.605185
 21
204.658333
 31
0.0
 11
22.301023
 21
206.084167
 31
0.0
 11
25.042000
 21
206.635000
 31
0.0
 11
27.930935
 21
206.139167
 31
0.0
 11
29.884981
 21
204.708333
 31
0.0
 11
30.554250
 21
202.427500
 31
0.0
 11
29.884981
 21
204.708333
 31
0.0
 11
27.930935
 21
206.139167
 31
0.0
 11
25.042000
 21
206.635000
 31
0.0
 11
22.301023
 21
206.084167
 31
0.0
 11
20.605185
 21
204.658333
 31
0.0
 11
20.024375
 21
202.697500
 31
0.0
 11
20.311028
 21
200.968333
 31
0.0
 11
21.147597
 21
199.904167
 31
0.0
 11
22.499000
 21
199.345000
 31
0.0
  0
SPLINE
  5
177
100
AcDbEntity
  8
ink_ext_XXXXXX
 62
1
100
AcDbSpline
 70
0
 71
3
 72
10
 73
6
 74
4
 40
0.000000
 40
0.000000
 40
0.000000
 40
0.000000
 40
1.861576
 40
3.555700
 40
5.394484
 40
5.394484
 40
5.394484
 40
5.394484
 10
28.011750
 20
198.152500
 30
0.0
 10
28.613933
 20
197.952719
 30
0.0
 10
29.764131
 20
197.571128
 30
0.0
 10
30.859231
 20
195.978435
 30
0.0
 10
30.924848
 20
194.789045
 30
0.0
 10
30.959000
 20
194.170000
 30
0.0
 11
28.011750
 21
198.152500
 31
0.0
 11
29.700880
 21
197.370000
 31
0.0
 11
30.680037
 21
195.987500
 31
0.0
 11
30.959000
 21
194.170000
 31
0.0
  0
LWPOLYLINE
  5
178
100
AcDbEntity
  8
ink_ext_XXXXXX
 62
1
100
AcDbPolyline
 90
3
 70
1
 10
28.011750
 20
198.152500
 30
0.0
 10
22.499000
 20
199.345000
 30
0.0
 10
28.011750
 20
198.152500
 30
0.0
  0
LWPOLYLINE
  5
179
100
AcDbEntity
  8
ink_ext_XXXXXX
 62
1
100
AcDbPolyline
 90
2
 70
1
 10
19.619125
 20
195.160000
 30
0.0
 10
19.619125
 20
195.160000
 30
0.0
  0
LWPOLYLINE
  5
17a
100
AcDbEntity
  8
ink_ext_XXXXXX
 62
1
100
AcDbPolyline
 90
8
 70
1
 10
49.341250
 20
190.251250
 30
0.0
 10
38.856500
 20
190.251250
 30
0.0
 10
38.856500
 20
206.387500
 30
0.0
 10
49.341250
 20
206.387500
 30
0.0
 10
38.856500
 20
206.387500
 30
0.0
 10
38.856500
 20
190.251250
 30
0.0
 10
49.341250
 20
190.251250
 30
0.0
 10
49.341250
 20
190.251250
 30
0.0
  0
SPLINE
  5
17b
100
AcDbEntity
  8
ink_ext_XXXXXX
 62
1
100
AcDbSpline
 70
0
 71
3
 72
13
 73
9
 74
7
 40
0.000000
 40
0.000000
 40
0.000000
 40
0.000000
 40
2.063014
 40
4.448239
 40
7.341365
 40
10.360392
 40
13.062258
 40
16.086281
 40
16.086281
 40
16.086281
 40
16.086281
 10
30.959000
 20
194.170000
 30
0.0
 10
30.792296
 20
193.484754
 30
0.0
 10
30.432852
 20
192.007235
 30
0.0
 10
28.313288
 20
190.449342
 30
0.0
 10
25.540713
 20
189.959518
 30
0.0
 10
22.657572
 20
190.359399
 30
0.0
 10
20.029992
 20
192.136302
 30
0.0
 10
19.761123
 20
194.114992
 30
0.0
 10
19.619125
 20
195.160000
 30
0.0
 11
30.959000
 21
194.170000
 31
0.0
 11
30.259963
 21
192.229028
 31
0.0
 11
28.410954
 21
190.722222
 31
0.0
 11
25.582000
 21
190.116250
 31
0.0
 11
22.605958
 21
190.623889
 31
0.0
 11
20.450000
 21
192.252361
 31
0.0
 11
19.619125
 21
195.160000
 31
0.0
  0
SPLINE
  5
17c
100
AcDbEntity
  8
ink_ext_XXXXXX
 62
1
100
AcDbSpline
 70
0
 71
3
 72
13
 73
9
 74
7
 40
0.000000
 40
0.000000
 40
0.000000
 40
0.000000
 40
3.023989
 40
5.725688
 40
8.744674
 40
11.637841
 40
14.023228
 40
16.086284
 40
16.086284
 40
16.086284
 40
16.086284
 10
54.831500
 20
195.160000
 30
0.0
 10
54.973454
 20
194.115000
 30
0.0
 10
55.242233
 20
192.136373
 30
0.0
 10
57.869628
 20
190.359356
 30
0.0
 10
60.752755
 20
189.959517
 30
0.0
 10
63.525341
 20
190.449390
 30
0.0
 10
65.645080
 20
192.007182
 30
0.0
 10
66.004627
 20
193.484748
 30
0.0
 10
66.171375
 20
194.170000
 30
0.0
 11
54.831500
 21
195.160000
 31
0.0
 11
55.662250
 21
192.252361
 31
0.0
 11
57.818000
 21
190.623889
 31
0.0
 11
60.794000
 21
190.116250
 31
0.0
 11
63.622995
 21
190.722222
 31
0.0
 11
65.472213
 21
192.229028
 31
0.0
 11
66.171375
 21
194.170000
 31
0.0
  0
LWPOLYLINE
  5
17d
100
AcDbEntity
  8
ink_ext_XXXXXX
 62
1
100
AcDbPolyline
 90
4
 70
1
 10
48.441375
 20
198.557500
 30
0.0
 10
38.856500
 20
198.557500
 30
0.0
 10
48.441375
 20
198.557500
 30
0.0
 10
48.441375
 20
198.557500
 30
0.0
  0
SPLINE
  5
17e
100
AcDbEntity
  8
ink_ext_XXXXXX
 62
1
100
AcDbSpline
 70
0
 71
3
 72
10
 73
6
 74
4
 40
0.000000
 40
0.000000
 40
0.000000
 40
0.000000
 40
1.840379
 40
3.540361
 40
5.383876
 40
5.383876
 40
5.383876
 40
5.383876
 10
66.171375
 20
194.170000
 30
0.0
 10
66.133677
 20
194.789549
 30
0.0
 10
66.061157
 20
195.981384
 30
0.0
 10
64.959319
 20
197.562262
 30
0.0
 10
63.817605
 20
197.950512
 30
0.0
 10
63.223625
 20
198.152500
 30
0.0
 11
66.171375
 21
194.170000
 31
0.0
 11
65.882088
 21
195.987500
 31
0.0
 11
64.892829
 21
197.370000
 31
0.0
 11
63.223625
 21
198.152500
 31
0.0
  0
SPLINE
  5
17f
100
AcDbEntity
  8
ink_ext_XXXXXX
 62
1
100
AcDbSpline
 70
0
 71
3
 72
25
 73
21
 74
19
 40
0.000000
 40
0.000000
 40
0.000000
 40
0.000000
 40
1.440356
 40
2.804194
 40
4.563563
 40
6.608630
 40
8.824265
 40
11.619793
 40
14.550997
 40
16.972916
 40
19.349898
 40
21.726881
 40
24.148800
 40
27.080004
 40
29.875532
 40
32.091167
 40
34.136234
 40
35.888997
 40
37.242665
 40
38.705477
 40
38.705477
 40
38.705477
 40
38.705477
 10
57.711375
 20
199.345000
 30
0.0
 10
57.239091
 20
199.481351
 30
0.0
 10
56.319612
 20
199.746809
 30
0.0
 10
55.349392
 20
201.043098
 30
0.0
 10
55.115070
 20
202.793943
 30
0.0
 10
55.643833
 20
204.835883
 30
0.0
 10
57.618008
 20
206.368847
 30
0.0
 10
60.305362
 20
206.807658
 30
0.0
 10
63.029192
 20
206.271644
 30
0.0
 10
65.340560
 20
205.286476
 30
0.0
 10
65.976916
 20
201.011398
 30
0.0
 10
65.340555
 20
205.286475
 30
0.0
 10
63.029218
 20
206.271647
 30
0.0
 10
60.305247
 20
206.807643
 30
0.0
 10
57.618380
 20
206.368897
 30
0.0
 10
55.642796
 20
204.835745
 30
0.0
 10
55.119004
 20
202.796631
 30
0.0
 10
55.338449
 20
201.049739
 30
0.0
 10
56.307269
 20
199.749453
 30
0.0
 10
57.231402
 20
199.483256
 30
0.0
 10
57.711375
 20
199.345000
 30
0.0
 11
57.711375
 21
199.345000
 31
0.0
 11
56.379819
 21
199.894167
 31
0.0
 11
55.533097
 21
200.963333
 31
0.0
 11
55.236375
 21
202.697500
 31
0.0
 11
55.817264
 21
204.658333
 31
0.0
 11
57.513153
 21
206.084167
 31
0.0
 11
60.253875
 21
206.635000
 31
0.0
 11
63.142838
 21
206.139167
 31
0.0
 11
65.096912
 21
204.708333
 31
0.0
 11
65.766125
 21
202.427500
 31
0.0
 11
65.096912
 21
204.708333
 31
0.0
 11
63.142838
 21
206.139167
 31
0.0
 11
60.253875
 21
206.635000
 31
0.0
 11
57.513153
 21
206.084167
 31
0.0
 11
55.817264
 21
204.658333
 31
0.0
 11
55.236375
 21
202.697500
 31
0.0
 11
55.523014
 21
200.968333
 31
0.0
 11
56.359653
 21
199.904167
 31
0.0
 11
57.711375
 21
199.345000
 31
0.0
  0
SPLINE
  5
180
100
AcDbEntity
  8
ink_ext_XXXXXX
 62
1
100
AcDbSpline
 70
0
 71
3
 72
10
 73
6
 74
4
 40
0.000000
 40
0.000000
 40
0.000000
 40
0.000000
 40
1.861593
 40
3.555792
 40
5.394629
 40
5.394629
 40
5.394629
 40
5.394629
 10
63.223625
 20
198.152500
 30
0.0
 10
63.825811
 20
197.952713
 30
0.0
 10
64.976034
 20
197.571104
 30
0.0
 10
66.071204
 20
195.978451
 30
0.0
 10
66.137086
 20
194.789048
 30
0.0
 10
66.171375
 20
194.170000
 30
0.0
 11
63.223625
 21
198.152500
 31
0.0
 11
64.912773
 21
197.370000
 31
0.0
 11
65.892060
 21
195.987500
 31
0.0
 11
66.171375
 21
194.170000
 31
0.0
  0
LWPOLYLINE
  5
181
100
AcDbEntity
  8
ink_ext_XXXXXX
 62
1
100
AcDbPolyline
 90
3
 70
1
 10
63.223625
 20
198.152500
 30
0.0
 10
57.711375
 20
199.345000
 30
0.0
 10
63.223625
 20
198.152500
 30
0.0
  0
LWPOLYLINE
  5
182
100
AcDbEntity
  8
ink_ext_XXXXXX
 62
1
100
AcDbPolyline
 90
2
 70
1
 10
54.831500
 20
195.160000
 30
0.0
 10
54.831500
 20
195.160000
 30
0.0
  0
LWPOLYLINE
  5
183
100
AcDbEntity
  8
ink_ext_XXXXXX
 62
1
100
AcDbPolyline
 90
10
 70
1
 10
71.638625
 20
206.477500
 30
0.0
 10
75.913625
 20
190.251250
 30
0.0
 10
81.066375
 20
206.477500
 30
0.0
 10
86.218250
 20
190.251250
 30
0.0
 10
90.493625
 20
206.477500
 30
0.0
 10
86.218250
 20
190.251250
 30
0.0
 10
81.066375
 20
206.477500
 30
0.0
 10
75.913625
 20
190.251250
 30
0.0
 10
71.638625
 20
206.477500
 30
0.0
 10
71.638625
 20
206.477500
 30
0.0
  0
SPLINE
  5
184
100
AcDbEntity
  8
ink_ext_XXXXXX
 62
1
100
AcDbSpline
 70
0
 71
3
 72
13
 73
9
 74
7
 40
0.000000
 40
0.000000
 40
0.000000
 40
0.000000
 40
2.063056
 40
4.448443
 40
7.341610
 40
10.360595
 40
13.062295
 40
16.086284
 40
16.086284
 40
16.086284
 40
16.086284
 10
66.171375
 20
194.170000
 30
0.0
 10
66.004627
 20
193.484748
 30
0.0
 10
65.645080
 20
192.007182
 30
0.0
 10
63.525341
 20
190.449390
 30
0.0
 10
60.752755
 20
189.959517
 30
0.0
 10
57.869628
 20
190.359356
 30
0.0
 10
55.242233
 20
192.136373
 30
0.0
 10
54.973454
 20
194.115000
 30
0.0
 10
54.831500
 20
195.160000
 30
0.0
 11
66.171375
 21
194.170000
 31
0.0
 11
65.472213
 21
192.229028
 31
0.0
 11
63.622995
 21
190.722222
 31
0.0
 11
60.794000
 21
190.116250
 31
0.0
 11
57.818000
 21
190.623889
 31
0.0
 11
55.662250
 21
192.252361
 31
0.0
 11
54.831500
 21
195.160000
 31
0.0
  0
LWPOLYLINE
  5
185
100
AcDbEntity
  8
ink_ext_XXXXXX
 62
1
100
AcDbPolyline
 90
4
 70
1
 10
96.275875
 20
198.737500
 30
0.0
 10
102.823750
 20
198.737500
 30
0.0
 10
96.275875
 20
198.737500
 30
0.0
 10
96.275875
 20
198.737500
 30
0.0
  0
LWPOLYLINE
  5
186
100
AcDbEntity
  8
ink_ext_XXXXXX
 62
1
100
AcDbPolyline
 90
3
 70
1
 10
112.880875
 20
190.251250
 30
0.0
 10
112.880875
 20
190.251250
 30
0.0
 10
112.880875
 20
190.251250
 30
0.0
  0
SPLINE
  5
187
100
AcDbEntity
  8
ink_ext_XXXXXX
 62
1
100
AcDbSpline
 70
0
 71
3
 72
31
 73
27
 74
25
 40
0.000000
 40
0.000000
 40
0.000000
 40
0.000000
 40
3.227040
 40
6.489630
 40
10.599302
 40
14.698053
 40
17.963490
 40
21.191912
 40
24.420456
 40
27.686002
 40
31.784764
 40
35.894449
 40
39.157149
 40
42.384310
 40
45.611350
 40
48.873941
 40
52.983613
 40
57.082363
 40
60.347800
 40
63.576222
 40
66.804766
 40
70.070312
 40
74.169075
 40
78.278759
 40
81.541459
 40
84.768621
 40
84.768621
 40
84.768621
 40
84.768621
 10
112.880875
 20
190.251250
 30
0.0
 10
114.007315
 20
190.471037
 30
0.0
 10
116.272606
 20
190.913031
 30
0.0
 10
117.675662
 20
194.584909
 30
0.0
 10
117.847417
 20
198.340846
 30
0.0
 10
117.673725
 20
202.156699
 30
0.0
 10
116.273212
 20
205.684892
 30
0.0
 10
112.880823
 20
206.837741
 30
0.0
 10
109.488453
 20
205.685368
 30
0.0
 10
108.087611
 20
202.154599
 30
0.0
 10
107.913785
 20
198.351343
 30
0.0
 10
108.085676
 20
194.549238
 30
0.0
 10
109.489057
 20
191.015309
 30
0.0
 10
112.880823
 20
189.871315
 30
0.0
 10
116.272608
 20
191.015301
 30
0.0
 10
117.675661
 20
194.549307
 30
0.0
 10
117.847417
 20
198.351343
 30
0.0
 10
117.673725
 20
202.154529
 30
0.0
 10
116.273212
 20
205.685376
 30
0.0
 10
112.880823
 20
206.837741
 30
0.0
 10
109.488453
 20
205.684884
 30
0.0
 10
108.087611
 20
202.156769
 30
0.0
 10
107.913785
 20
198.340846
 30
0.0
 10
108.085676
 20
194.584841
 30
0.0
 10
109.489055
 20
190.913032
 30
0.0
 10
111.754403
 20
190.471037
 30
0.0
 10
112.880875
 20
190.251250
 30
0.0
 11
112.880875
 21
190.251250
 31
0.0
 11
115.912477
 21
191.357222
 31
0.0
 11
117.394023
 21
194.264028
 31
0.0
 11
117.785625
 21
198.355000
 31
0.0
 11
117.394023
 21
202.435000
 31
0.0
 11
115.912477
 21
205.345000
 31
0.0
 11
112.880875
 21
206.455000
 31
0.0
 11
109.849144
 21
205.345000
 31
0.0
 11
108.367356
 21
202.435000
 31
0.0
 11
107.975625
 21
198.355000
 31
0.0
 11
108.367356
 21
194.264028
 31
0.0
 11
109.849144
 21
191.357222
 31
0.0
 11
112.880875
 21
190.251250
 31
0.0
 11
115.912477
 21
191.357222
 31
0.0
 11
117.394023
 21
194.264028
 31
0.0
 11
117.785625
 21
198.355000
 31
0.0
 11
117.394023
 21
202.435000
 31
0.0
 11
115.912477
 21
205.345000
 31
0.0
 11
112.880875
 21
206.455000
 31
0.0
 11
109.849144
 21
205.345000
 31
0.0
 11
108.367356
 21
202.435000
 31
0.0
 11
107.975625
 21
198.355000
 31
0.0
 11
108.367356
 21
194.264028
 31
0.0
 11
109.849144
 21
191.357222
 31
0.0
 11
112.880875
 21
190.251250
 31
0.0
  0
LWPOLYLINE
  5
188
100
AcDbEntity
  8
ink_ext_XXXXXX
 62
1
100
AcDbPolyline
 90
2
 70
1
 10
132.771250
 20
190.251250
 30
0.0
 10
123.118125
 20
190.251250
 30
0.0
  0
SPLINE
  5
189
100
AcDbEntity
  8
ink_ext_XXXXXX
 62
1
100
AcDbSpline
 70
0
 71
3
 72
10
 73
6
 74
4
 40
0.000000
 40
0.000000
 40
0.000000
 40
0.000000
 40
2.700252
 40
4.871026
 40
7.084860
 40
7.084860
 40
7.084860
 40
7.084860
 10
123.118125
 20
190.251250
 30
0.0
 10
123.218478
 20
191.168957
 30
0.0
 10
123.399506
 20
192.824422
 30
0.0
 10
125.027606
 20
194.673865
 30
0.0
 10
126.256014
 20
195.460380
 30
0.0
 10
126.876250
 20
195.857500
 30
0.0
 11
123.118125
 21
190.251250
 31
0.0
 11
123.707537
 21
192.886389
 31
0.0
 11
125.071838
 21
194.574861
 31
0.0
 11
126.876250
 21
195.857500
 31
0.0
  0
SPLINE
  5
18a
100
AcDbEntity
  8
ink_ext_XXXXXX
 62
1
100
AcDbSpline
 70
0
 71
3
 72
25
 73
21
 74
19
 40
0.000000
 40
0.000000
 40
0.000000
 40
0.000000
 40
1.669811
 40
3.160416
 40
4.671358
 40
6.427741
 40
8.469911
 40
11.058658
 40
13.726286
 40
15.958517
 40
18.201484
 40
20.444451
 40
22.676682
 40
25.344310
 40
27.933057
 40
29.975227
 40
31.731611
 40
33.242552
 40
34.733157
 40
36.402968
 40
36.402968
 40
36.402968
 40
36.402968
 10
130.723750
 20
198.422500
 30
0.0
 10
131.150970
 20
198.802781
 30
0.0
 10
131.959559
 20
199.522530
 30
0.0
 10
132.289938
 20
201.111402
 30
0.0
 10
132.349525
 20
202.684825
 30
0.0
 10
132.053543
 20
204.469840
 30
0.0
 10
130.640933
 20
206.240264
 30
0.0
 10
128.133000
 20
206.848260
 30
0.0
 10
125.551800
 20
206.125913
 30
0.0
 10
123.991432
 20
204.585675
 30
0.0
 10
123.625992
 20
200.670284
 30
0.0
 10
123.991432
 20
204.585675
 30
0.0
 10
125.551800
 20
206.125913
 30
0.0
 10
128.133000
 20
206.848260
 30
0.0
 10
130.640933
 20
206.240264
 30
0.0
 10
132.053543
 20
204.469840
 30
0.0
 10
132.349525
 20
202.684825
 30
0.0
 10
132.289938
 20
201.111402
 30
0.0
 10
131.959559
 20
199.522530
 30
0.0
 10
131.150970
 20
198.802781
 30
0.0
 10
130.723750
 20
198.422500
 30
0.0
 11
130.723750
 21
198.422500
 31
0.0
 11
131.842083
 21
199.662500
 31
0.0
 11
132.245417
 21
201.097500
 31
0.0
 11
132.298750
 21
202.607500
 31
0.0
 11
131.935139
 21
204.325833
 31
0.0
 11
130.651528
 21
205.914167
 31
0.0
 11
128.158750
 21
206.612500
 31
0.0
 11
125.585056
 21
205.910833
 31
0.0
 11
124.176444
 21
204.179167
 31
0.0
 11
123.748000
 21
201.977500
 31
0.0
 11
124.176444
 21
204.179167
 31
0.0
 11
125.585056
 21
205.910833
 31
0.0
 11
128.158750
 21
206.612500
 31
0.0
 11
130.651528
 21
205.914167
 31
0.0
 11
131.935139
 21
204.325833
 31
0.0
 11
132.298750
 21
202.607500
 31
0.0
 11
132.245417
 21
201.097500
 31
0.0
 11
131.842083
 21
199.662500
 31
0.0
 11
130.723750
 21
198.422500
 31
0.0
  0
LWPOLYLINE
  5
18b
100
AcDbEntity
  8
ink_ext_XXXXXX
 62
1
100
AcDbPolyline
 90
3
 70
1
 10
126.876250
 20
195.857500
 30
0.0
 10
130.723750
 20
198.422500
 30
0.0
 10
126.876250
 20
195.857500
 30
0.0
  0
LWPOLYLINE
  5
18c
100
AcDbEntity
  8
ink_ext_XXXXXX
 62
1
100
AcDbPolyline
 90
3
 70
1
 10
123.118125
 20
190.251250
 30
0.0
 10
132.771250
 20
190.251250
 30
0.0
 10
132.771250
 20
190.251250
 30
0.0
  0
LWPOLYLINE
  5
18d
100
AcDbEntity
  8
ink_ext_XXXXXX
 62
1
100
AcDbPolyline
 90
2
 70
0
 10
246.575000
 20
107.135750
 30
0.0
 10
246.575000
 20
53.986375
 30
0.0
  0
SPLINE
  5
18e
100
AcDbEntity
  8
ink_ext_XXXXXX
 62
1
100
AcDbSpline
 70
0
 71
3
 72
10
 73
6
 74
4
 40
0.000000
 40
0.000000
 40
0.000000
 40
0.000000
 40
2.213835
 40
4.384608
 40
7.084860
 40
7.084860
 40
7.084860
 40
7.084860
 10
126.876250
 20
195.857500
 30
0.0
 10
126.256014
 20
195.460380
 30
0.0
 10
125.027606
 20
194.673865
 30
0.0
 10
123.399506
 20
192.824422
 30
0.0
 10
123.218478
 20
191.168957
 30
0.0
 10
123.118125
 20
190.251250
 30
0.0
 11
126.876250
 21
195.857500
 31
0.0
 11
125.071838
 21
194.574861
 31
0.0
 11
123.707537
 21
192.886389
 31
0.0
 11
123.118125
 21
190.251250
 31
0.0
  0
LWPOLYLINE
  5
18f
100
AcDbEntity
  8
ink_ext_XXXXXX
 62
1
100
AcDbPolyline
 90
2
 70
0
 10
237.716250
 20
100.049375
 30
0.0
 10
255.432500
 20
100.049375
 30
0.0
  0
ENDSEC
  0
SECTION
  2
OBJECTS
  0
DICTIONARY
  5
C
330
0
100
AcDbDictionary
  3
ACAD_GROUP
350
D
  3
ACAD_MLINESTYLE
350
17
  0
DICTIONARY
  5
D
330
C
100
AcDbDictionary
  0
DICTIONARY
  5
1A
330
C
100
AcDbDictionary
  0
DICTIONARY
  5
17
330
C
100
AcDbDictionary
  3
STANDARD
350
18
  0
DICTIONARY
  5
19
330
C
100
AcDbDictionary
  0
ENDSEC
  0
EOF
